Staind - Waste Chords & Tabs

 

Waste Chords & Tabs

Staind Chords & Tabs

Version: 1 Type: Tab 0 ratings
1 star 2 stars 3 stars 4 stars 5 stars
comments

Waste Tab

intro/verse
---------------------------------------------------
----------------------------------------------------
-------------------------------------------------
--8p7-------4-----------------------------------------
------4h5p4---4h5--------------------------------------------
2----------------------------------------------------
[ Tab from: http://www.guitartabs.cc/tabs/s/staind/waste_tab.html ]
     chorus
--------------------------------------
---------------------------------------
----------------------------------------
7-6-6-2--------------------------------------
7-6-6-2---------------------------------------
5/4-4-0-----------------------------------------

  bridge
--------------------------------------------------
----------------------------------------------------
--10---7---9----------------------------------------------
7----7---7---7-10-10-10-10-----------------------------------------
------------------10-10-10---------------------------------
----------------------------------------------------

well listen to the cd to find out the amount of tmes you playit.
complaints questions, e-mail me at kylecfree@aol.com
Comments