Staind - Waste Chords & Tabs

 

Waste Chords & Tabs

Staind Chords & Tabs

Version: 1 Type: Bass Tab 0 ratings
1 star 2 stars 3 stars 4 stars 5 stars
comments

Waste Bass Tab

Band- Staind
Song- Waste

G)-----------------------------------|
D)-----------------------------------|
A)------3h4h3------------3h4h3-------|  VERSES
E)----1---------4-3---1---------3----|
B)--------------------------------6--|
[ Tab from: http://www.guitartabs.cc/tabs/s/staind/waste_btab.html ]
G)-----------------------------------|
D)-----------------------------------|
A)-----------------------------------| CHORUS
E)------4-3--4-3---------------------|
B)-----------------6-----------------|


G)-----------------------------------|
D)-----------------------------------|
A)--4-4-----222--4--22--4-4-222------| INTERLUDE 1
E)-----------------------------------|
B)-----------------------------------|

G)-----------------------------------|
D)-----------------------------------|
A)-----------------------------------| INTERLUDE 2
E)-----------------------------------|
B---0-0-0-5-0-0-0-5-0-0-0-5-0-0-0-5--|
Comments