Staind - Warm Safe Place Chords & Tabs

 

Warm Safe Place Chords & Tabs

Staind Chords & Tabs

Version: 1 Type: Tab 0 ratings
1 star 2 stars 3 stars 4 stars 5 stars
comments

Warm Safe Place Tab

   
Band- Staind
Song- Warm Safe Place

Tuning: Ab Eb Bb Db Gb Bb


Intro: clean w/chorus, then distorted
|-------------------------------|
|-------------------------------|
|-------------------------------| x3
|-10---10--10-8-----------------|
|-0----0---0--0---0-0---0-0-0-0-|
|-------------------------------|

|-------------------------------|
|-------------------------------|
|-------------------------------| x1
|-10---10--10-8-----------------|
|-0----0---0--0---0-3h6-6p3-3-0-|
|-----------------0-3h6-6p3-3-0-|

|-------------------------------|
|-------------------------------|
|-------------------------------| x3
|-5/---10--10-8-----------------|
|-5/---0---0--0---0-3h6-6p3-3-0-|
|-5/--------------0-3h6-6p3-3-0-|

|-------------0-----------------|
|-------------0-----------------|
|-------------9-----------------| x1
|-5----10--10-8-----------------|
|-5----0---0--0-----------------|
|-5-----------0-----------------|

Verse 1: clean w/chorus, then distorted
|-------------------------------|
|-------------------------------|
|-------------------------------| x3
|-10---10--10-8-----------------|
|-0----0---0--0---0-0---0-0-0-0-|
|-------------------------------|

|-------------------------------|
|-------------------------------|
|-------------------------------| x1
|-10---10--10-8-----------------|
|-0----0---0--0---0-3h6-6p3-3-0-|
|-----------------0-3h6-6p3-3-0-|

|---------------------------------------------------------------|
|---------------------------------------------------------------|
|---------------------------------------------------------------|
|-5/---10--10-8---0-5-------5---5/---10--10-8---0-0-0-0-0-0-0-0-|
|-5/---0---0--0---0---0-0-0---0-5/---0---0--0---0-0-0-0-0-0-0-0-|
|-5/----------------------------5/------------------------------|
Pm                                                . . . . . . .
Nh                  .       .

|---------------------------------------------------------------|
|---------------------------------------------------------------|
|---------------------------------------------------------------|
|-5/---10--10-8---0-5-------5---5/---10--10-8-------------------|
|-5/---0---0--0---0---0-0-0---0-5/---0---0--0---0-0-0-0-0-0-0-0-|
|-5/----------------------------5/------------------------------|
Pm                                                . . . . . . .
Nh                  .       .

Chorus 1:

Guitar 1:
|------------------------------------------------------------------------|
|------------------------------------------------------------------------|
|------------------------------------------------------------------------| x3
|-10---10--9--10----10----9h10-10----13---13--12-13----13-13-13h15-15-12-|
|-10---10--10-10----10----10---10-10-12---12--12-12----12-12-12----12-12-|
|-10---10--10-10----10-10-10---10-10-12---12--12-12----12----12----12-12-|

Guitar 2:
|-7----7---7--5-----5--0--8-8--7--0--12---12--15/17----17-17-15-15-12-12-|
|------------------------------------------------------------------------|
|------------------------------------------------------------------------| x3
|------------------------------------------------------------------------|
|------------------------------------------------------------------------|
|------------------------------------------------------------------------|

then:

Guitar 1:
|-----------------------------------------------------|
|-----------------------------------------------------|
|-----------------------------------------------------| x1
|-10---10--9--10----10----9h10-10----13---13--12-13---|
|-10---10--10-10----10----10---10-10-12---12--12-12---|
|-10---10--10-10----10-10-10---10-10-12---12--12-12---|

Guitar 2:
|-7----7---7--5-----5--0--8-8--7--0--12---------------|
|-----------------------------------------11--11-9----|
|-----------------------------------------------------| x1
|-----------------------------------------------------|
|-----------------------------------------------------|
|-----------------------------------------------------|

then:

Guitar 1:
|------------------|
|------------------|
|------------------| x1
|-13---13--12h13---|
|-12---12--12------|
|------------------|
[ Tab from: http://www.guitartabs.cc/tabs/s/staind/warm_safe_place_tab.html ]
Guitar 2:
|------------------|
|-12-------11h12---|
|------------------| x1
|------------------|
|------------------|
|------------------|

Verse 2:same as vese 1

Chorus 2:

Guitar 1:
|------------------------------------------------------------------------|
|------------------------------------------------------------------------|
|------------------------------------------------------------------------| x3
|-10---10--9--10----10----9h10-10----13---13--12-13----13-13-13h15-15-12-|
|-10---10--10-10----10----10---10-10-12---12--12-12----12-12-12----12-12-|
|-10---10--10-10----10-10-10---10-10-12---12--12-12----12----12----12-12-|

Guitar 2:
|-7----7---7--5-----5--0--8-8--7--0--12---12--15/17----17-17-15-15-12-12-|
|------------------------------------------------------------------------|
|------------------------------------------------------------------------| x3
|------------------------------------------------------------------------|
|------------------------------------------------------------------------|
|------------------------------------------------------------------------|

then:

Guitar 1:
|-----------------------------------------------------|
|-----------------------------------------------------|
|-----------------------------------------------------| x1
|-10---10--9--10----10----9h10-10----13---13--12-13---|
|-10---10--10-10----10----10---10-10-12---12--12-12---|
|-10---10--10-10----10-10-10---10-10-12---12--12-12---|

Guitar 2:
|-7----7---7--5-----5--0--8-8--7--0--12---------------|
|-----------------------------------------11--11-9----|
|-----------------------------------------------------| x1
|-----------------------------------------------------|
|-----------------------------------------------------|
|-----------------------------------------------------|

then:

Guitar 1:
|-------------------------|
|-------------------------|
|-------------------------|
|-13---13--12h13----------|
|-12---12--12-------------|
|-12---12--12-------------|

Guitar 2:
|-------------------------|
|-------------------------|
|-------------------------|
|-------------------13\---|
|-------------------12\---|
|-------------------------|

Bridge:
|-----------------------------------------------------------------|
|-----------------------------------------------------------------|
|-----------------------------------------------------------------| x 3
|-8--8--8-----8--8---8-8-8-----------5-5-5-5-3---6-5--------------|
|-8--8--8--x--8--8---8-8-8-----------5-5-5-5-3---6-5--------------|
|-8--8--8--x--8--8---8-8-8-17---17---5-5-5-5-3---6-5------3---3---|
Nh                         ..   ..                        .   .

|-----------------------------------------------------------------|
|-----------------------------------------------------------------|
|-----------------------------------------------------------------| x 1
|-8--8--8-----8--8---8-8-8-----------5-5-5-5-3---6-5--------------|
|-8--8--8--x--8--8---8-8-8-----------5-5-5-5-3---6-5--------------|
|-8--8--8--x--8--8---8-8-8-17---17---5-5-5-5-3---6-5--------------|
Nh                         ..   ..

Verse 3: clean w/chorus, then distorted
|-------------------------------|
|-------------------------------|
|-------------------------------| x3
|-10---10--10-8-----------------|
|-0----0---0--0---0-0---0-0-0-0-|
|-------------------------------|

|-------------0-----------------|
|-------------0-----------------|
|-------------9-----------------| x1
|-10---10--10-8-----------------|
|-0----0---0--0-----------------|
|-------------0-----------------|

Chorus 3: same as chorus 1

Outro:

Guitar 1:                        x3                   x1
|-------------------------0-------|--------------------|
|-0-------------------------0-----|--------------------|
|-5----5---4h5--------5-------4---|-5----5---4h5-------|
|-5----5---5------------5-------5-|-5----5---5---------|
|-0----0---0--------0-------------|-0----0---0---------|
|---------------------------------|--------------------|

Guitar 2:                        x3                   x1
|----------------------12---------|--------------------|
|-11---11--9h11--12-11----12-11-9-|-11---11--9h11------|
|---------------------------------|--------------------|
|---------------------------------|--------------------|
|---------------------------------|--------------------|
|---------------------------------|--------------------|
Comments