Staind - Tormented Chords & Tabs

 

Tormented Chords & Tabs

Staind Chords & Tabs

Version: 1 Type: Tab 0 ratings
1 star 2 stars 3 stars 4 stars 5 stars
comments

Tormented Tab

   
Band- Staind
Album- Tormented(Rare Album)

1.TOLERATE

Tuning (low to high) Db Ab Db Gb Bb Eb

Notes: The high pitched noise heard in the intro and other parts of a song is feedback.
I think Mike said in an interview that he used some crappy amps to get the feedback heard
in this song. If you can get that noise using just feedback cheers to you...but since I
can't I just use a harmonic.
* = Harmonic
/ = Slide Up
h = hammer on
p = pull off

INTRO: Like I said above the noise after the E5 and Db5 chords is feedback but I just use a
harmonic.

Eb|------------------------------------------|
Bb|------------------------------------------|
Gb|----*3---*3---*3---*3---*3---*3---*3---*3-|
Db|--0----3----0----3----3----3----3----3----|
Ab|--0----3----0----3----3----3----3----3----|
Db|--0----3----0----3----3----3----3----3----|

INTRO Part 2:

Eb|----------------------------|
Bb|----------------------------|
Gb|----------------------------|
Db|----------------------3-----|
Ab|--0h2-----------------3-----|
Db|------0-0-0h3-0-3/9-0-3-----|
p.m      . .


VERSE:
            2X                            4x
Eb|----------------------------|--------------------|
Bb|----------------------------|--------------------|
Gb|----------------------------|----*3---*3---------|
Db|----------------------3-----|--3----3------------|
Ab|--0h2-----------------3-----|--3----3------------|
Db|------0---0h3-0-3/9-0-3-----|--3----3------------|
p.m  . . .   . . . . . . .

CHORUS:
          3x                    Last Time
Eb|------------------|---------------------------|
Bb|------------------|---------------------------|
Gb|------------------|---------------------------|
Db|----------------6-|----------------2----------|
Ab|----------------6-|----------------2----------|
Db|--3p0-2-3-2-0-1-6-|--3p0-2-3-2-0-1-2----------|

PRE-BRIDGE

Eb|----------------------|
Bb|----------------------|
Gb|---*3---*3---*3---*3--|
Db|-0----0----0----0-----|
Ab|-0----0----0----0-----|
Db|-0----0----0----0-----|

BRIDGE:

Eb|---------------------------------|-----------------|
Bb|---------------------------------|-----------------|
Gb|---------------------------------|---*3--*3--------|
Db|-7h9-------7h9-----7h9-----------|-3----3----------|
Ab|-7h9-0-0-0-7h9-0-0-7h9---2-3-2-0-|-3----3----------|
Db|-7h9-0-0-0-7h9-0-0-7h9-0-2-3-2-0-|-3----3----------|
p.m     . . .     . .

CHORUS:
          3x                            Last Time
Eb|------------------|-------------------------------------------------|
Bb|------------------|-------------------------------------------------|
Gb|------------------|-------------------------------------------------|
Db|----------------6-|----------------2--------------------------------|
Ab|----------------6-|----------------2--------------------------------|
Db|--3p0-2-3-2-0-1-6-|--3p0-2-3-2-0-1-2--------------------------------|

OUTRO:
                                       Let the feedback ring on and on...and on
Eb|----------------------------------|------------------------------------|
Bb|----------------------------------|------------------------------------|
Gb|----------------------------------|----*3---*3-------------------------|
Db|--7p5-----7p0-----9p7-------------|--3----3----------------------------|
Ab|--7p5-0-0-7p0-0-0-9p7-0-0-0--0-0--|--3----3----------------------------|
Db|--7p5-0-0-7p0-0-0-9p7-0-0-0--0-0--|--3----3----------------------------|
p.m      . .     . .     . . .  . .

2.BREAK

INTRO:

Eb|-4-1-4-4-4-1-4-1--------------------------|
Bb|-1---1-------1----------------------------|
Gb|-4---4-------4----------------------------|
Db|------------------------------------------|
Ab|------------------*5--*5------*5--*5------|
Db|------------------------------------------|

VERSE:

Eb|-4-1-4-4-4-1-4-1-4-t6p1-4-1-4-4-1-4-1---------------------|
Bb|-1---1-1-----1---1------1---1-----1-----------------------|
Gb|-4---4-------4---4------4---------4-----------------------|
Db|-------------3--------------------3-----------------------|
Ab|---------------------------------------*5--*5-----*5-*5---|
Db|----------------------------------------------------------|

The second time through the verse play the first 2 harmonics then crank on the distortion and
play:

Eb|--------------|
Bb|--------------|
Gb|--------------|
Db|--------------|
Ab|--3-0-0-5-----|
Db|--3-0-0-5-----|
p.m  . . .

HEAVY VERSE PART 1:

         3x                       1x
Eb|-----------------------|------------------|
Bb|-----------------------|------------------|
Gb|-----------------------|------------------|
Db|-----------------------|------------------|
Ab|-3p2-0-0-2h3-0-0-0-2-0-|--3p2-0-2h3-0-0-2-|
Db|-3p2-0-0-2h3-0-0-0-2-0-|--3p2-0-2h3-0-0-2-|
p.m     . .     . . .   .        .     . .

HEAVY VERSE PART 2:
                          4x
Eb|------------------------------------------------------|
Bb|------------------------------------------------------|
Gb|------------------------------------------------------|
Db|------------------------------------------------------|
Ab|-3p2-0-0-0-3p2-0-0-0-3p2-0-0-0-2-X-X-X-X-X-X----------|
Db|-3p2-0-0-0-3p2-0-0-0-3p2-0-0-0-2-X-X-X-X-X-X----------|
p.m     . . .     . . .     . . .

HEAVY VERSE PART 3:

Eb|-----------------------|
Bb|-----------------------|
Gb|-7-7---7-7---7-7--5----|
Db|-7-7---7-7---7-7--5----|
Ab|-5-5---5-5---5-5--3----|
Db|-----------------------|

HEAVY VERSE PART 4:

	    2x
Eb|------------------------|
Bb|------------------------|
Gb|------------------------|
Db|------------------------|
Ab|-3p2-0-0-2h3-0-0-2-0----|
Db|-3p2-0-0-2h3-0-0-2-0----|

Go back and forth between the heavy verse part 3 and part 4 four times except on the
last time instead of playing part 4 play part 1. Hopefully that isn't confusing...
Then play part 2 again...
Then go back and forth between part 3 and 4 like I said right above.


SOLO: Heavy verse part 2 is being played behind the solo

Eb|-volume swell--|--------------------------------------------------------------|
Bb|---------------|--------------------------------------------------------------|
Gb|----7----------|-10-9/10-9/10-9-7-5-7-7-7-7-7-7-7-7-10-9/10-9/10-12-12-10-14--|
Db|----x----------|--X-X--X-X--X-X-X-X-X-X-X-X-X-X-X-X--X-X-X--X-X---X--X--X--X--|
Ab|----5----------|--8-7/-8-7/-8-7-5-3-5-5-5-5-5-5-5-5--8-7/8--7/8--10-10--8-12--|
Db|---------------|--------------------------------------------------------------|

Whenever I play this solo for the next part I either just sustain the last octave from the
above riff or I just improvise playing something near the 20th fret on the first 2 strings.
If you improvise just end on a full step bend on the 20th fret on the high E string.

The last part is just all the heavy riffs...you figure out the order...it's not hard.


END ON:

Eb|----|
Bb|----|
Gb|----|
Db|----|
Ab|-2--|
Db|-2--|

3.COME AGAIN

Tuning (low to high) Db Ab Db Gb Bb Eb

There is 2 guitars in this song but I'm going to tab it out if you
want to play this in your band or something and you only have one guitar player.

/ = slide up
\ = slide down
<> = harmonic
p.m = palm mute

INTRO/CHORUS

|---------------|--------------------------------------|
|--volume swell-|--------------------------------------|
|---<7>---------|--------------------------------------|
|---------------|-0---3---6---0-3---6---0-0-0-0--------|
|---------------|-0---3---6---0-3---6---0-0-0-0--------|
|---------------|-0---3---6---0-3---6---0-0-0-0--------|
p.m                                     . . . .

FIRST PART OF VERSE

|--------------------------------|
|-7--7--12/13\12----7----17------|
|-6--6--11/12\11----6----16------|
|--------------------------------|
|--------------------------------|
|--------------------------------|

SECOND PART OF VERSE

|-----------------------------------------|
|-----------------------------------------|
|-----------------------------------------|
|--0---6h7-------<7>----0-3-6-3-0-0-------|
|--0---6h7--<7>---------0-3-6-3-0-0-------|
|--0---6h7----------<7>-0-3-6-3-0-0-------|
   .   . .              . . . . . .

CHORUS

|----------------------------------|
|----------------------------------|
|----------------------------------|
|---0---3---6---0--3--6--0-0-0-0---|
|---0---3---6---0--3--6--0-0-0-0---|
|---0---3---6---0--3--6--0-0-0-0---|
p.m                      . . . .

FIRST PART OF BRIDGE

|-----------------------------------------|
|-----------------------------------------|
|-----------------------------------------|
|---7h8-------8p7------7--0-3-6-3-0-0-0---|
|---7h8--0-0--8p7---0--7--0-3-6-3-0-0-0---|
|---7h8--0-0--8p7---0--7--0-3-6-3-0-0-0---|
p.m      . .        .     . . . . . . .

SECOND PART OF BRIDGE

|----------------------------------|--------------------------------------|
|----------------------------------|--------------------------------------|
|----------------------------------|--------------------------------------|
|----------------------------------|-2-X-X-X-X-9\8-X-8\7------------------|
|--0-x-x-x-x-/7-x-/4\-x-x-3\-x-x---|-0-X-X-X-X-7\6-X-6\5--0-0-0-0-0-0-0-0-|
|----------------------------------|----------------------0-0-0-0-0-0-0-0-|
                                                          . . . . . . . .

OUTRO

|-------------------------------------|
|-------------------------------------|
|-------------------------------------|
|-2-x-x-x-x-9\8-x-6-------------------|
|-0-x-x-x-x-7\6-x-4-0-0-0-0-0-0-0-0---|
|-------------------0-0-0-0-0-0-0-0---|
p.m                 . . . . . . . .

4.PAINFUL

Tuning: (low to high) Db Ab Db Gb Bb Eb

INTRO:

Eb|------------------------------------------|
Bb|------------------------------------------|
Gb|------------------------------------------|
Db|-0-0-3-4-3-0-3-5-3-0-3-6-3-X-X-X-X-X-X-X--|
Ab|-0-0-3-4-3-0-3-5-3-0-3-6-3-X-X-X-X-X-X-X--|
Db|-0-0-3-4-3-0-3-5-3-0-3-6-3-X-X-X-X-X-X-X--|
p.m  . . . . . . . . . . . . .

VERSE:

Eb|-----------------------------------------|
Bb|-----------------------------------------|
Gb|-----------------------------------------|
Db|-0--0-0--0--0--0-0--0-3-4-3-0-3-5-3-0-0--|
Ab|-0--0-0--0--0--0-0--0-3-4-3-0-3-5-3-0-0--|
Db|-0--0-0--0--0--0-0--0-3-4-3-0-3-5-3-0-0--|
p.m                     . . . . . . . . . .

CHORUS:

Eb|----------------------------------------------------------------------------|
Bb|----------------------------------------------------------------------------|
Gb|-7-5---------7-5------------7-5-------------------------7-5-----------------|
Db|-7-5--3-5-3--7-5--3-5-3-3-3-7-5-3-5-3-0-3-4-3-0-3-5-3-0-7-5-3-5-3-3-3-3-3---|
Ab|-5-3--3-5-3--5-3--3-5-3-3-3-5-3-3-5-3-0-3-4-3-0-3-5-3-0-5-3-3-5-3-3-3-3-3---|
Db|------3-5-3-------3-5-3-3-3-----3-5-3-0-3-4-3-0-3-5-3-0-----3-5-3-3-3-3-3---|
p.m                                      . . . . . . . . .

SOLO:

Eb|------------------------------------------------------------|
Bb|--5b-5b-5b-------------------------------------5b-5b-5b-----|
Gb|--5b-5b-5b--5-7-5---5--------------------------5b-5b-5b-----|
Db|------------------7---7-5---5-7-5---5-----------------------|
Ab|--------------------------7-------7---7-5-0-----------------|
Db|------------------------------------------------------------|
a.h            . . . . . . . . . . . . . . . .

Eb|------------------------------------------------------|
Bb|-----6-5---5-5-----8-8-----5-5--------14b-14b-14b-----|
Gb|---7-----7-----7-7-----7-7-----7------14b-14b-14b-----|
Db|------------------------------------------------------|
Ab|------------------------------------------------------|
Db|------------------------------------------------------|
p.m   . . . . . . . . . . . . . . .

Eb|-----15p13p12h13p12-------------------------------------------------------------|
Bb|---x---------------15p14p12h15p12-----------------------------------------------|
Gb|-x-------------------------------14p13p12-14p13p12--12------------------12------|
Db|--------------------------------------------------14--14p13p12--12h13h14--------|
Ab|--------------------------------------------------------------14----------------|
Db|--------------------------------------------------------------------------------|

Eb|--------------------------------------------------------------------------------|
Bb|-----------------------13-------------------------------------------------------|
Gb|-14brp12--------12--12b..12r-12~------------------------------------------------|
Db|--------14-12h14---------------15~--15-12h14-15~-15-14brp12-14-12----12~--12-12-|
Ab|------------------------------------------------------------------15----------15|
Eb|--------------------------------------------------------------------------------|

Eb|-22-22-22-22-22-22-22------------------20-20-20-20-20-20------------------------|
Bb|----------------------20-20-20-20-20-20------------------17-17-17-17-17-17-17---|
Gb|--------------------------------------------------------------------------------|
Db|--------------------------------------------------------------------------------|
Ab|--------------------------------------------------------------------------------|
Db|--------------------------------------------------------------------------------|

Eb|-17-17-17-17-17-17-17----------------------15151515151515----------------------------------|
Bb|----------------------15-15-15-15-15-15-15----------------131313-15-15-15 15p14p12---------|
Gb|----------------------------------------------------------------------------------14p13p12-|
Db|-------------------------------------------------------------------------------------------|
Ab|-------------------------------------------------------------------------------------------|
Db|-------------------------------------------------------------------------------------------|
[ Tab from: http://www.guitartabs.cc/tabs/s/staind/tormented_tab.html ]
Eb|-15s17---------------------19--21b-17-15-17-15--------------------------------|
Bb|---------------------------------------------18-15-17br-18p17p15--15--15-17b~-|
Gb|------------------------------------------------------------------17--17-17b~-|
Db|--------14p13p12--12h13h14----------------------------------------------------|
Ab|----------------14------------------------------------------------------------|
Db|------------------------------------------------------------------------------|

5.NAMELESS

Notes: 2 guitars are used in this song. So I just tabbed this out if you were to be playing by
yourself.


INTRO PART 1:
               8x
Eb|-------------------------------------|-------------|
Bb|-------------------------------------|-------------|
Gb|-------------------------------------|-------------|
Db|-5h6-X-X-X-X-6p5-X-X-X-X-5-----------|-0-5-6-5-----|
Ab|-5h6-X-X-X-X-6p5-X-X-X-X-5-0-0-0-----|-0-5-6-5-----|
Db|-5h6-X-X-X-X-6p5-X-X-X-X-5-0-0-0-----|-0-5-6-5-----|
p.m                           . . .       . . . .

INTRO PART 2:

Eb|---------------------------------------------------|
Bb|---------------------------------------------------|
Gb|--------------------------------------------8------|
Db|----------6-----------6----------6----------7------|
Ab|-0----3-0-5--0----3-0-5-0----3-0-5-0----3-0-6------|
Db|-0-*5-3-0----0-*5-3-0---0-*5-3-0---0-*5-3-0--------|
p.m        .           .          .          .

Eb|--------------------------------------------------------------------|
Bb|--------------------------------------------------------------------|
Gb|--------------------------------------------------------------------|
Db|----------6-----------6----------6----------------------------------|
Ab|-0----3-0-5--0----3-0-5-0----3-0-5-1-X-X-3p1-X-X-3p1-X-X-3p1-X-X-3--|
Db|-0-*5-3-0----0-*5-3-0---0-*5-3-0---1-X-X-3p1-X-X-3p1-X-X-3p1-X-X-3--|
p.m        .           .          .

VERSE PART 1:

Eb|------------8-----8----------------8----8----|
Bb|---X-9---10--8-----8\-----X-9---10--8----8---|
Gb|-6-----7-------10-----X-6-----7-------10-----|
Db|---------------------------------------------|
Ab|---------------------------------------------|
Db|---------------------------------------------|

VERSE PART 2:

Eb|---------------------------------------------------|
Bb|---------------------------------------------------|
Gb|--------------------------------------------8------|
Db|----------6-----------6----------6----------7------|
Ab|-0----3-0-5--0----3-0-5-0----3-0-5-0----3-0-6------|
Db|-0-*5-3-0----0-*5-3-0---0-*5-3-0---0-*5-3-0--------|
p.m        .           .          .          .

Eb|--------------------------------------------------------------------|
Bb|--------------------------------------------------------------------|
Gb|--------------------------------------------------------------------|
Db|----------6-----------6----------6----------------------------------|
Ab|-0----3-0-5--0----3-0-5-0----3-0-5-1-X-X-3p1-X-X-3p1-X-X-3p1-X-X-3--|
Db|-0-*5-3-0----0-*5-3-0---0-*5-3-0---1-X-X-3p1-X-X-3p1-X-X-3p1-X-X-3--|
p.m        .           .          .

CHORUS PART 1:

Eb|-----------------|
Bb|-----------------|
Gb|-----------------|
Db|-----------------|
Ab|-0-2-2-3-0-0-2---|
Db|-0-2-2-3-0-0-2---|
p.m   . .   . .

CHORUS PART 2:

Eb|---------------------------------------------------|
Bb|---------------------------------------------------|
Gb|--------------------------------------------8------|
Db|----------6-----------6----------6----------7------|
Ab|-0----3-0-5--0----3-0-5-0----3-0-5-0----3-0-6------|
Db|-0-*5-3-0----0-*5-3-0---0-*5-3-0---0-*5-3-0--------|
p.m        .           .          .          .

Then go through the verse...
Then the first part of the chorus...

BRIDGE: I don't know what effect is being used on the octaves here but there is one...
you decide what to do.

Eb|----------------------------------------------------|
Bb|----------------------------------------------------|
Gb|-9-9-9-9--10-10-10-10-------------------------------|
Db|-X-X-X-X---x--x--x--x-------------------------------|
Ab|-7-7-7-7---8--8--8--8--1-X-X-3p1-X-X-1h3-X-X-3p1----|
Db|-----------------------1-X-X-3p1-X-X-1h3-X-X-3p1----|

Then play the first part of the chorus...
The last part is just the intro being played over again

6.MUDSHOVEL

Intro
|-------|
|-------|
|---%---| (bass guitar intro) x3
|---%---| ..You take away..
|-------|
|-------|

Bit Before Verse
|--------------------------------|
|--------------------------------|
|--------------------------------| x2
|--------------------------------|
|---#4\#1/#4\#1/#4\#1/#4\#1/#4---|
|--------------------------------|

Verse
|--------------------------|
|--------------------------| (i dont think the #5 is right)
|---------------------#5---|
|------#3----------#3------|
|---#3----#4---#3----------|
|--------------------------|

verse cont..
|--------------------------------|
|--------------------------------|
|--------------------------------|
|--------------------------------|
|---#4\#1/#4\#1/#4\#1/#4\#1/#4---|
|--------------------------------|

Chorus
|-------------------------------------|
|-------------------------------------|
|---7-7-7-7-7-7--10-------------------| x2
|---7-7-7-7-7-7--10-------------------|
|---7-7-7-7-7-7--10--7-7-7-7-7-7--5---|
|--------------------5-5-5-5-5-5--3---|

Bit Before Verse
|--------------------------------|
|--------------------------------|
|--------------------------------|
|--------------------------------|
|---#4\#1/#4\#1/#4\#1/#4\#1/#4---|
|--------------------------------|

Verse
|--------------|
|--------------|
|--------------|
|------#3------|
|---#3----#4---|
|--------------|

|--------|
|--------|
|--------|
|---#3---|
|--------|
|--------|

verse cont..
|--------------------------------|
|--------------------------------|
|--------------------------------|
|--------------------------------|
|---#4\#1/#4\#1/#4\#1/#4\#1/#4---|
|--------------------------------|

Chorus
|-------------------------------------|
|-------------------------------------|
|---7-7-7-7-7-7--10-------------------| x2
|---7-7-7-7-7-7--10-------------------|
|---7-7-7-7-7-7--10--7-7-7-7-7-7--5---|
|--------------------5-5-5-5-5-5--3---|

Bridge
|-------------------------------------------|
|-------------------------------------------|
|---5--0--6-------------5--0--6-------------| x4
|---5--0--6-------------5--0--6-------------|
|---5--0--6------5------5--0--6------5------|
|-------------0--3--0-------------0--3--0---|

Interlude
|---------------------------|
|---------------------------|
|----------------------#5---| x2
|------#3----------#3-------|
|---#3----#4---#3-----------|
|---------------------------|

Chorus
|-------------------------------------|
|-------------------------------------|
|---7-7-7-7-7-7--10-------------------| x4
|---7-7-7-7-7-7--10-------------------|
|---7-7-7-7-7-7--10--7-7-7-7-7-7--5---|
|--------------------5-5-5-5-5-5--3---|

Ending
|-------------------------------------------|
|-------------------------------------------|
|---5--0--6-------------5--0--6-------------| x4
|---5--0--6-------------5--0--6-------------|
|---5--0--6------5------5--0--6------5------|
|-------------0--3--0-------------0--3--0---|

End on
|-------|
|-------|
|-------|
|-------|
|---2---|
|---0---|

7.SEE THRU

INTRO:

Eb|------------------------------------------|
Bb|------------------------------------------|
Gb|------------------------------<7>-<7>-<7>-|
Db|------------------------------------------|
Ab|-3p2-0-0-2-0-2-0-2-3-2-0-2-0--------------|
Db|-3p2-0-0-2-0-2-0-2-3-2-0-2-0--------------|
p.m   . .   .   . . . . . . .

VERSE:

Eb|-------------------------------------------|
Bb|-------------------------------------------|
Gb|-----------------------------------<7>-<7>-|
Db|-------------------------------------------|
Ab|-2-3-2-0-2-2-0-2---------------------------|
Db|-2-3-2-0-2-2-0-2---2-3-2-0-2-2-0-2---------|
p.m . . . . . . . .   . . . . . . . .

Chorus is the same thing as the Intro

BRIDGE PART 1:

Eb|-----------------------------------------------|
Bb|--3--------------------------------------------|
Gb|--2----2p0-------------------------------------|
Db|--0--------0---0---0-----0-3-------------------|
Ab|--0--3-------3---3---2h3---2-3p0-0-3-5---------|
Db|--0--------------------------3p0-0-3-5---------|
p.m             . . . .             .

BRIDGE PART 2:

Eb|--------------|
Bb|--------------|
Gb|--------------|
Db|--------------|
Ab|--0-3-0-3-5---|
Db|--0-3-0-3-5---|
p.m  .   .

Last riff right before the chorus and riff you play after last chorus:

Eb|-----------|
Bb|-----------|
Gb|-----------|
Db|-----------|
Ab|-X-5-X-5-5-|
Db|-X-5-X-5-5-|

8.QUESTION

INTRO: Right before Aaron starts screaming basically play every note with a pick harmonic

Eb|---------------------------|
Bb|---------------------------|
Gb|---------------------------|
Db|---------------------------|
Ab|------------8---5h7--7p5---|
Db|--0/7-7-7-7---7------------|
p.m  . . . . . . .

CHORUS:

Eb|--------------------------------------|
Bb|-9-9-9-9-10-10-10-10-7-7-7-7-9-9-9-9--|
Gb|-9-9-9-9-10-10-10-10-7-7-7-7-9-9-9-9--|
Db|-9-9-9-9-10-10-10-10-7-7-7-7-9-9-9-9--|
Ab|-7-7-7-7-8--8--8--8--5-5-5-5-7-7-7-7--|
Db|--------------------------------------|

VERSE: Right before Chorus play basically every note with a pick harmonic

Eb|----------------------------|
Bb|----------------------------|
Gb|----------------------------|
Db|----------------------------|
Ab|------------8---5h7-<7>p<5>-|
Db|--0/7-7-7-7---7-------------|
p.m  . . . . . . .

Play chorus
Play verse again
Play chorus


BRIDGE PART 1:

Eb|---------------|
Bb|---------------|
Gb|---------------|
Db|---------------|
Ab|---------------|
Db|-*2.6/////*5---|

Play the chorus again

BRIDGE PART 2: Just strum on this chord...figure out the strumming pattern to your liking

Eb|----|
Bb|-9--|
Gb|-9--|
Db|-9--|
Ab|-7--|
Db|----|

9.NO ONES KIND

Tuning: Ab Db Ab Db Gb Bb

Intro
Fade in with this chord
|---|
|-5-|
|---|
|-3-|
|---|
|---|

Verse riff/part of chorus riff
|-------------------------------|
|-------------------------------|
|----------<5>------------------|
|-3-2-0-0------0-2-3-0-3-2-0-0--|
|-3-2-0-0------0-2-3-0-3-2-0-0--|
|-------------------------------|

Chorus
|--------------------|
|-----------------7--|
|-----------------6--|
|3-3-0-0-3-2-0-0--5--|
|3-3-0-0-3-2-0-0-----|
|--------------------|

I don't have the fills or solo tabbed out

other riffs
|-----------------------------------------|
|--------------------------------------7--|
|--------------------------------------6--|
|-0-2-0--0-2-0--0-2-0--0-2-0--0-3-2-0--5--|
|-0-2-0--0-2-0--0-2-0--0-2-0--0-3-2-0-----|
|-----------------------------------------|

then you play the same riff above in a faster strumming pattern

10.SELF DESTRUCT

INTRO:

Eb|-------------------------------------------------------------------|
Bb|-------------------------------------------------------------------|
Gb|-------------------------------------------------------------------|
Db|--------5p4-------------5p4-------------5p4-------------5p4--------|
Ab|--6p5-0-----0-5h6-6p5-0-----0-5h6-6p5-0-----0-5h6-6p5-0-----0-5h6--|
Db|-------------------------------------------------------------------|


INTRO PART 2/CHORUS:

Eb|-----------------------------------------------------------------|
Bb|-----------------------------------------------------------------|
Gb|-----------------------------------------------------------------|
Db|-1p0-0-6p5-0-0-0-1p0-0-6p5-0-0-0-1p0-0-6p5-0-0-0-1p0-0-6p5-0-0-0-|
Ab|-1p0-0-6p5-0-0-0-1p0-0-6p5-0-0-0-1p0-0-6p5-0-0-0-1p0-0-6p5-0-0-0-|
Db|-1p0-0-6p5-0-0-0-1p0-0-6p5-0-0-0-1p0-0-6p5-0-0-0-1p0-0-6p5-0-0-0-|
p.m      .     . . .     .     . . .     .     . . .     .     . . .


End with this right before the verse, sustain the last chord until the verse:

Eb|--------------------|
Bb|--------------------|
Gb|--------------------|
Db|-1p0-0-6-5-0-1-0~~~-|
Ab|-1p0-0-6-5-0-1-0~~~-|
Db|-1p0-0-6-5-0-1-0~~~-|
p.m .   . . . . .


VERSE: Some very faint stuff before these harmonics but they are way to hard to hear
so basically it's inaudible

Eb|-*5-*5-*5-*5-|
Bb|-*5-*5-*5-*5-|
Gb|-*5-*5-*5-*5-|
Db|-------------|
Ab|-------------|
Db|-------------|


CHORUS?: Part where Aaron starts singing "My Life has slowly faded..."

Eb|----------------------------|
Bb|----------------------------|
Gb|----------------------------|
Db|-1-0-0-1p0-0-0-0-6p5-0-3-3--|
Ab|-1-0-0-1p0-0-0-0-6p5-0-3-3--|
Db|-1-0-0-1p0-0-0-0-6p5-0-3-3--|
p.m   . .     . . .     . . .


Then play the Chorus

Then back and forth between the Intro and Chorus


BRIDGE/OUTRO:

|--------------------------------|
|--------------------------------|
|--------------------------------|
|--6p5-0-0-4-0-0-3-0-0-0h1-1p0---|
|--6p5-0-0-4-0-0-3-0-0-0h1-1p0---|
|--6p5-0-0-4-0-0-3-0-0-0h1-1p0---|
p.m    . .   . .   . .

11.4 WALLS

Guitar tuned to C#, G#, C#, F#, A#, D#

^ hammer on
/ pull off


Intro/Verse  (Clean)
F# -----------------------------------------|
C# --------7^8--------------------5---------|
G#---------------------5^6-----------5------|
C# ----5----------5-----------5-------------|


Intro/Verse (continued)
1st ending                 2nd ending
--------------------      -------------------|
--------------------     -----------3--------|
------6/5----------      --------------------|
-5----------3------      ---0--3-------------|

Chorus  (Clean)
F#----7------7----7----5-|
C#----5------5----5----3-|
G#----5------5----5----3-|
C#----5------5----5----3-|

Breakdown (slightly distorted)
F#--12-12-12/10-------------|
C#------------------12------|
G#--------------------------|
C#--------------------------|
Comments