Staind - Suffocate Chords & Tabs

 

Suffocate Chords & Tabs

Staind Chords & Tabs

Version: 2 Type: Tab 0 ratings
1 star 2 stars 3 stars 4 stars 5 stars
comments

Suffocate Tab

Band: Staind
Song: Suffocate
Album: Dysfunction
Tabbed by: w1crazymofo@bolt.com
Tuning: Drop Db
[ Tab from: http://www.guitartabs.cc/tabs/s/staind/suffocate_tab_ver_2.html ]
Intro 
Eb|-------------------|
Bb|-------------------|
Gb|-------------------|
Db|-2--2-2--2-2--2-2--|
Ab|-2--2-2--2-2--2-2--|
Db|-2--2-2--2-2--2-2--|
 
Pre-Verse			          
Eb|---------------------|
Bb|---------------------|
Gb|---------------------|
Db|--2^-xx-0h2-x-3p2-x--|
Ab|--2^-xx-0h2-x-3p2-x--|
Db|--2^-xx-0h2-x-2p2-x--|
 
Verse 
Eb|-----------------------|
Bb|-----------------------|
Gb|-----------------------|
Db|--2-2----2-2-2----2-2--|
Ab|--2-2----2-2-2----2-2--|
Db|--2-2----2-2-2----2-2--|
         
Chorus 
Eb|--------------------------|
Bb|--------------[6-5]-[6^]--|
Gb|--------------------------|
Db|--5--4--------------------|
Ab|--3--2--3-----------------|
Db|--3--2--0-----------------|
           ^PM

Riff 1
Eb|-----------------|
Bb|-----------------|
Gb|-----------------|
Db|--2-x-2-x-2-x-2--|
Ab|--2-x-2-x-2-x-2--|
Db|--2-x-2-x-2-x-2--|

Riff 2 
Eb|----------|--------------------------|-----|
Bb|----------|--------------------------|-----|
Gb|--5----2--|------3-------------------|-----|
Db|----------|--2-x-3-2-2-0h2-xx-0h2-xx-|-----|
Ab|--3----0--|--2-x-1-2-2-0h2-xx-0h2-xx-|-----|
Db|----------|--2-x---2-2-0h2-xx-0h2-xx-|--2--|
Comments