Staind - Suffer Chords & Tabs

 

Suffer Chords & Tabs

Staind Chords & Tabs

Version: 5 Type: Tab 0 ratings
1 star 2 stars 3 stars 4 stars 5 stars
comments

Suffer Tab

I think the tuning is drop d tuned down a half step
---------------------
---------------------
----------0-------0--
-0-0--3-2---0----2---
-0-0--1-1-----0-3----
-0-0---0-------------
   pm
[ Tab from: http://www.guitartabs.cc/tabs/s/staind/suffer_tab_ver_5.html ]
Verses
------------------------------------
------------------------------------
-33333333333333333333333333333333---
-33333333333333333333333333333333---
-11111111111111111111111111111111---
------------------------------------

Chorus
-------
-------
-------
-5-8-8-
-3-6-5-he strums through these for the chorus
-3-6-5-
Comments