Staind - Suffer Chords & Tabs

 

Suffer Chords & Tabs

Staind Chords & Tabs

Version: 4 Type: Tab 0 ratings
1 star 2 stars 3 stars 4 stars 5 stars
comments

Suffer Tab

Artist - Staind 
Song   - Suffer 
Album  - Break The Cycle 
Tabbed in Drop D by IcEmAn (Tom Milewski)
[Reverted from Tom Kelly's Standard Tuning Version]

intro 
eb|---------------------------------------
Bb|---------------------------------------
Gb|--------------0-----0------------------
Db|----2----8-8-----7---------------------
Ab|----2----8-8-----7---------------------
Db|----2----8-8-----7---------------------
[ Tab from: http://www.guitartabs.cc/tabs/s/staind/suffer_tab_ver_4.html ]
verse 
eb|--------------------------------------
Bb|--------------------------------------
Gb|-------------------------------------- 
Db|---8-8-8-8-8-8-8-8-8-8--     ---------
Ab|---8-8-8-8-8-8-8-8-8-8-- etc ---------
Db|---8-8-8-8-8-8-8-8-8-8--     ---------

chorus 
eb|----------------------------------------- 
Bb|--------1--------------------------------
Gb|----------2-3-3p2-------8-8--------------
Db|---3--------------3-----8-8---5----------
Ab|---3--------------------6-6---5----------
Db|---3--------------------------5----------
Comments