Staind - Suffer Chords & Tabs

 

Suffer Chords & Tabs

Staind Chords & Tabs

Version: 1 Type: Tab 0 ratings
1 star 2 stars 3 stars 4 stars 5 stars
comments

Suffer Tab

   
Artist: Staind
Song: Suffer
Album: Break The Cycle
Tabbed by: Lew Aaron Manalang
email: freakazoid_trex@hotmail.com

Tuning:
D-tuned half step down

Db-Ab-Db-Gb/F-Bb-Eb

(.) palm muted


Intro
||-----------------------------------------||
||-----------------------------------------||
||-----------------------------------------||
||-0-0-8-0-8-----5---5-0-0-8-0-8-----5---5-||
||-0-0-8-0-8-4/5---6---0-0-8-0-8-4/5---6---||
||-0-0-8-0-8-----------0-0-8-0-8-----------||
   . .   .           . .   .  
   ^ ^   ^           ^ ^   ^

verses(both guitars i guess)
||-----------------------||-----------------------------------------||
||-----------------------||-----------------------------------------||
||-----------------------||-----------------------------------------||
||-8-8-8-8-8---8-8-8-8-8-||-0-0-8-0-8-----5---5-0-0-8-0-8-----5---5-||
||-8-8-8-8-8---8-8-8-8-8-||-0-0-8-0-8-4/5---6---0-0-8-0-8-4\5---6---||
||-8-8-8-8-8-0-8-8-8-8-8-||-0-0-8-0-8-----------0-0-8-0-8-----------||
   ......... . .........   . .   .           . .   . 
            2x          then>>^

CHORUS
[ Tab from: http://www.guitartabs.cc/tabs/s/staind/suffer_tab.html ]
Guitar 1
||----------------------------------------------||
||----------------------------------------------||
||----------------8-8-8-8-8-8-8-8-8-------------||
||-10-10-10-8-8-8-8-8-8-8-8-8-8-8-8--8-8-8------||
||-10-10-10-8-8-8-6-6-6-6-6-6-6-6-6--8-8-8------||
||-10-10-10-8-8-8--------------------8-8-8------||


Guitar 2
||-----------------------------------------------||
||-----------------------------------------------||
||-----5-5---------------------------------------||
||---------7---7-7h8-8-8(hold)-8p7---------------||
||--------------------------------8--------------||
||-----------------------------------------------||

Bridge
||-----------------------------------||
||-----------------------------------||
||-----------------------------------||
||-0-0-3-0-1-0-1-0-0-0-3-0-1-0-1-0-0-||
||-0-0-3-0-1-0-1-0-0-0-3-0-1-0-1-0-0-||
||-0-0-3-0-1-0-1-0-0-0-3-0-1-0-1-0-0-||


ending
||-------------------------------------||
||-------------------------------------||
||-----5-5-----------------------------||
||---------7---7-7h8-8-8-8p7-----------||
||---------------------------8---------||
||-------------------------------------||
Comments