Staind - Spleen Chords & Tabs

 

Spleen Chords & Tabs

Staind Chords & Tabs

Version: 4 Type: Tab 0 ratings
1 star 2 stars 3 stars 4 stars 5 stars
comments

Spleen Tab

Drop D 1/2 Step Down
 

[ Tab from: http://www.guitartabs.cc/tabs/s/staind/spleen_tab_ver_4.html ]
     Intro                                        (4 times)
 Eb|------------------------------------------------------|
 Bb|------------------------------------------------------|
 Gb|--8------------8------------8-------------------------|
 Db|--7--0---3p2---7--0---3p2---7--0---3p2---3p2---2-3/5--|
 Ab|--5--0---3p2---5--0---3p2---5--0---3p2---3p2---2-3/5--|
 Db|--0--0---3p2---0--0---3p2---0--0---3p2---3p2---2-3/5--|
 P.M.    .            .            .
  
   Verse Riff          (3 times)
 Eb|---------------------------|---------------------------|
 Bb|---------------------------|---------------------------|
 Gb|---------------------------|---------------------------|
 Db|---------------------------|---------------------------|
 Ab|--6-6-6-5-5-5-6-6-6-3-3-3--|--6-6-6-5-5-5-6-6-6-3-3-3--|
 Db|---------------------------|---------------------------|
 P.M. . . . . . . . . . . . .
 
                (4 times) 
 Eb|--------------------|
 Bb|--------------------|
 Gb|--8--7--8--7--5--7--|
 Db|--6--5--6--5--3--5--|
 Ab|--6--5--6--5--3--5--|
 Db|--6--5--6--5--3--5--|
 
   Verse 1             (3 times)
 Eb|---------------------------|---------------------------|
 Bb|---------------------------|---------------------------|
 Gb|---------------------------|---------------------------|
 Db|---------------------------|---------------------------|
 Ab|--6-6-6-5-5-5-6-6-6-3-3-3--|--6-6-6-5-5-5-6-6-6-3-3-3--|
 Db|---------------------------|---------------------------|
 P.M. . . . . . . . . . . . .
 
                (4 times) 
 Eb|--------------------|
 Bb|--------------------|
 Gb|--8--7--8--7--5--7--|
 Db|--6--5--6--5--3--5--|
 Ab|--6--5--6--5--3--5--|
 Db|--6--5--6--5--3--5--|
 
   Verse 2             (3 times)
 Eb|---------------------------|---------------------------|
 Bb|---------------------------|---------------------------|
 Gb|---------------------------|---------------------------|
 Db|---------------------------|---------------------------|
 Ab|--6-6-6-5-5-5-6-6-6-3-3-3--|--6-6-6-5-5-5-6-6-6-3-3-3--|
 Db|---------------------------|---------------------------|
 P.M. . . . . . . . . . . . .
 
                (4 times) 
 Eb|--------------------|
 Bb|--------------------|
 Gb|--8--7--8--7--5--7--|
 Db|--6--5--6--5--3--5--|
 Ab|--6--5--6--5--3--5--|
 Db|--6--5--6--5--3--5--|
 
   Chorus					   (3 times)
 Eb|--------------------------------------------------------|
 Bb|--------------------------------------------------------|
 Gb|--------------------------------------------------------|
 Db|--00000-0000-1---00000-0000-1---00000-0000-1---3-2-5-3--|
 Ab|--00000-0000-1---00000-0000-1---00000-0000-1---3-2-5-3--|
 Db|--00000-0000-1---00000-0000-1---00000-0000-1---3-2-5-3--|
 P.M.                                              . . . .
 
                       (2 times)                   (2 times)
 Eb|---------------------------|---------------------------|
 Bb|---------------------------|---------------------------|
 Gb|---------------------------|---------------------------|
 Db|---------------------------|---------------------------|
 Ab|--6-6-6-5-5-5-6-6-6-3-3-3--|--6-6-6-5-5-5-6-6-6-3-3-3--|
 Db|---------------------------|---------------------------|
 P.M. . . . . . . . . . . . .
 
                (4 times) 
 Eb|--------------------|
 Bb|--------------------|
 Gb|--8--7--8--7--5--7--|
 Db|--6--5--6--5--3--5--|
 Ab|--6--5--6--5--3--5--|
 Db|--6--5--6--5--3--5--|
 
   Verse 3             (2 times)                   (2 times)
 Eb|---------------------------|---------------------------|
 Bb|---------------------------|---------------------------|
 Gb|---------------------------|---------------------------|
 Db|---------------------------|---------------------------|
 Ab|--6-6-6-5-5-5-6-6-6-3-3-3--|--6-6-6-5-5-5-6-6-6-3-3-3--|
 Db|---------------------------|---------------------------|
 P.M. . . . . . . . . . . . .
 
                (4 times) 
 Eb|--------------------|
 Bb|--------------------|
 Gb|--8--7--8--7--5--7--|
 Db|--6--5--6--5--3--5--|
 Ab|--6--5--6--5--3--5--|
 Db|--6--5--6--5--3--5--|
 
   Verse 4             (2 times)                   (2 times)
 Eb|---------------------------|---------------------------|
 Bb|---------------------------|---------------------------|
 Gb|---------------------------|---------------------------|
 Db|---------------------------|---------------------------|
 Ab|--6-6-6-5-5-5-6-6-6-3-3-3--|--6-6-6-5-5-5-6-6-6-3-3-3--|
 Db|---------------------------|---------------------------|
 P.M. . . . . . . . . . . . .
 
                (4 times) 
 Eb|--------------------|
 Bb|--------------------|
 Gb|--8--7--8--7--5--7--|
 Db|--6--5--6--5--3--5--|
 Ab|--6--5--6--5--3--5--|
 Db|--6--5--6--5--3--5--|
 
   Chorus					   (3 times)
 Eb|--------------------------------------------------------|
 Bb|--------------------------------------------------------|
 Gb|--------------------------------------------------------|
 Db|--00000-0000-1---00000-0000-1---00000-0000-1---3-2-5-3--|
 Ab|--00000-0000-1---00000-0000-1---00000-0000-1---3-2-5-3--|
 Db|--00000-0000-1---00000-0000-1---00000-0000-1---3-2-5-3--|
 P.M.                                              . . . .
 
   Interlude:
            (2 times)      - (clean tone 2 times)       -(distortion 3 times)
 Eb|----------------|---------------------------|---------------------------|
 Bb|----------------|---------------------------|---------------------------|
 Gb|----------------|---------------------------|---------------------------|
 Db|----------------|--3----------5----------2--|--3----------5----------2--|
 Ab|--0-2-3--0-2-3--|--3----------5----------2--|--3----------5----------2--|
 Db|----------------|--3----------5----------2--|--3----------5----------2--|
 P.M.                  .          .          .
 
                (4 times) 
 Eb|--------------------|
 Bb|--------------------|
 Gb|--8--7--8--7--5--7--|
 Db|--6--5--6--5--3--5--|
 Ab|--6--5--6--5--3--5--|
 Db|--6--5--6--5--3--5--|
 
   Chorus					   (3 times)
 Eb|--------------------------------------------------------|
 Bb|--------------------------------------------------------|
 Gb|--------------------------------------------------------|
 Db|--00000-0000-1---00000-0000-1---00000-0000-1---3-2-5-3--|
 Ab|--00000-0000-1---00000-0000-1---00000-0000-1---3-2-5-3--|
 Db|--00000-0000-1---00000-0000-1---00000-0000-1---3-2-5-3--|
 P.M.                                              . . . .
Comments