Staind - Spleen Chords & Tabs

 

Spleen Chords & Tabs

Staind Chords & Tabs

Version: 3 Type: Tab 0 ratings
1 star 2 stars 3 stars 4 stars 5 stars
comments

Spleen Tab

ok, this is my first tab and i learned this song myself without help.
The tuning can be standard, but i do it one tone down, you just move all the
note stwo spaces up.This tab doesnt include the intro, cause i dont know it

If you kno wthe intro, please e-mail me at super_alfan1@hotmail.com


1st Verse
e-----------------------------------------
B-----------------------------------------
G-----------------------------------------
D-----------------------------------------
A-----888-7777-888-777-55-77--------------
E-----------------------------------------
play 4 times


Pre chorus:
e-----------------------------------------
B-----------------------------------------
G-----------------------------------------
D--9--8--9--8--6--6--8--------------------
A--9--8--9--8--6--6--8--------------------
E--7--6--7--6--4--4--6--------------------


Chorus:
e-----------------------------------------
B-----------------------------------------
G------------7----------------------------
D--6---6-66--7------------6--4--7--3------
A--6---6-66--5------------6--4--7--3------
E--4---4-44--5------------4--2--5--1------
  [play this 3 times] and then this   

[ Tab from: http://www.guitartabs.cc/tabs/s/staind/spleen_tab_ver_3.html ]
2nd Verse
e-----------------------------------------
B-----------------------------------------
G-----------------------------------------
D-----------------------------------------
A-----888-7777-888-777-55-77--------------
E-----------------------------------------
play 4 times


Pre chorus:
e-----------------------------------------
B-----------------------------------------
G-----------------------------------------
D--9--8--9--8--6--6--8--------------------
A--9--8--9--8--6--6--8--------------------
E--7--6--7--6--4--4--6--------------------


Chorus:
e-----------------------------------------
B-----------------------------------------
G------------7----------------------------
D--6---6-66--7------------6--4--7--3------
A--6---6-66--5------------6--4--7--3------
E--4---4-44--5------------4--2--5--1------
  [play this 3 times] and[ then this ]  


3rd verse
e-------------------------------------------
B-------------------------------------------
G-------------------------------------------
D-------------------------------------------
A---------------------------0--1-1--0--1-1--
E-0-1-1---0-1-1---0-1-1-----0--1-1--0--1-1--
 [ you'll know how many ]  [this is the "I blame you" part"

After that you just repeat the others, well hope you enjoy. Bye. 
   times you play it
Comments