Staind - So Far Away Chords & Tabs

 

So Far Away Chords & Tabs

Staind Chords & Tabs

Version: 7 Type: Tab 0 ratings
1 star 2 stars 3 stars 4 stars 5 stars
comments

So Far Away Tab

Carlos Martinez right here, this is what it sounds like if you listen closely,
once i figure out the rest, i promise i'll put it up, untill then, this is what i got

[ Tab from: http://www.guitartabs.cc/tabs/s/staind/so_far_away_tab_ver_7.html ]
|--11-------------------12-----------------14--------------------------------------
|---------11---11---11-------11---11---11---------11---11---11---14---12---11------
|----------------------------------------------------------------------------------
|----------------------------------------------------------------------------------
|----------------------------------------------------------------------------------
|----------------------------------------------------------------------------------


|------11------------------12-------------------14---------------16---13-----------
|---------11---11---11-------11---11---11----------11---11---11---------------14---
|----------------------------------------------------------------------------------
|----------------------------------------------------------------------------------
|----------------------------------------------------------------------------------
|----------------------------------------------------------------------------------
Comments