Staind - So Far Away Chords & Tabs

 

So Far Away Chords & Tabs

Staind Chords & Tabs

Version: 5 Type: Tab 0 ratings
1 star 2 stars 3 stars 4 stars 5 stars
comments

So Far Away Tab

Okay....First of all, hats off to Staind for composing this amazing song.
Probably one of the most beautiful ones on the new album. Anyways, this is my
first Tab, so here goes. (this sounds alright to me, so if you think it
sucks...go look for another, it's not my problem.)
-------------------------------------------------------------------------------
			     SO FAR AWAY - Staind
-------------------------------------------------------------------------------

Tabbed by: Tricky Dicky
Email: hyper_physikal@hotmail.com

Tuning: Standard

Okay...Guitars One and Two play their respective parts at the same time.
Listen to the song, you'll get it.

Guitar One:
[ Tab from: http://www.guitartabs.cc/tabs/s/staind/so_far_away_tab_ver_5.html ]
e|--7---7-7--8---8-8--10---10-10--5------------------------------------------|
B|-----8-8------8-8-------8--8--------7-8------------------------------------|
G|---------------------------------------------------------------------------|
D|---------------------------------------------------------------------------|
A|---------------------------------------------------------------------------|
E|---------------------------------------------------------------------------|

Guitar Two:

e|------3-----3-----3-----3-----3-----3----2--3------------------------------|
B|--0-0---0-0---1-1---1-1---3-3---3-3----------------------------------------|
G|--------------------------------------2------------------------------------|
D|---------------------------------------------------------------------------|
A|---------------------------------------------------------------------------|
E|---------------------------------------------------------------------------|


That's all there is too it! just listen to the song for timing, and play this.
Once again, if it doesn't sound right (although i think it's pretty accurate)
Sorry! Maybe one day I'll get off my lazy-ass and finish the song! who knows!
===============================================================================
Comments