Staind - So Far Away Chords & Tabs

 

So Far Away Chords & Tabs

Staind Chords & Tabs

Version: 18 Type: Tab 0 ratings
1 star 2 stars 3 stars 4 stars 5 stars
comments

So Far Away Tab

   
Title: So Far Away
Artist: Staind
Album: 14 Shades of Grey
Tabbed by: zman919191

Tuning: down a half step (Eb,Ab,Db,Gb,Bb,Eb)

                             Intro/Verse
Intro/Verse (lead):
(w/o distortion)
eb|------------------------------------------------------------------------|
Bb|-12------------12-13-------------13-15-------------15-------------------|
Gb|------12----12----------12----12----------12----12-------14--11--12-----|
Db|---------14----------------14----------------14-------------------------|
Ab|------------------------------------------------------------------------|
Eb|------------------------------------------------------------------------|

eb|----------------------------------------------------------17--(14)-(15)-|
Bb|-12-------------12-13-------------13-15-------------15------------------|
Gb|-------12----12----------12----12----------12----12---------------------|
Db|----------14----------------14----------------14------------------------|
Ab|------------------------------------------------------------------------|
Eb|------------------------------------------------------------------------|

Intro/Verse (Rhythm):
(w/o distortion)
   Em7     C2    G     D
eb|-3------3-----3-----2-|
Bb|-3------3-----3-----3-|
Gb|-0------0-----0-----2-|
Db|-2------2-----0-----0-|
Ab|-2------3-----2-----x-|
Eb|-0------x-----3-----x-|

                             Pre-Chorus
                        ".....Sleeping....."
Pre-Chorus (lead 1):
(w/o distortion)
eb|-------------------------------------------------------------|
Bb|-12------------12-13-------------13-13-------------13--------|
Gb|------12----12----------12----12----------12----12-------14--|
Db|---------14----------------14----------------14--------------|
Ab|-------------------------------------------------------------|
Eb|-------------------------------------------------------------|

Pre-Chorus (rhythm):
(w/o distortion)
   C#7     C     
eb|-0------0-------|
Bb|-0------1-------|
Gb|-0------0-------|
Db|-2------2-------|
Ab|-3------3-------|
Eb|-0------x-------|
[ Tab from: http://www.guitartabs.cc/tabs/s/staind/so_far_away_tab_ver_18.html ]
                               Chorus
Chorus (rhythm):
(w/o distortion)
    G      D     Em7     C2
eb|-3------2------3------3--|
Bb|-3------3------3------3--|
Gb|-0------2------0------0--|
Db|-0------0------2------2--|
Ab|-2------x------2------3--|
Eb|-3------x------0------x--|

Chorus (lead 1):
(with distortion)
     G      D     Em7     C2
eb|--------------------------|
Bb|--------------------------|
Gb|---------7------9------5--|
Db|--5------7------9------5--|
Ab|--5------5------7------3--|
Eb|--3-----(5)-----0-----(3)-|   ()= optional

Chorus (lead 2)
(with distortion)
eb|-------------------------------|
Bb|-------------------------------|
Gb|--12---14---16---12-11-12---9--|
Db|---x----x----x----x--x--x---x--|   don't play last chord last time
Ab|--10---12---14---10--9-10---7--|
Eb|-------------0-----------------|

                              Bridge
Bridge (rhythm):
(w/o distortion)
    C2     G      D     Em7
eb|-3------3------2------3--|
Bb|-3------3------3------3--|
Gb|-0------0------2------0--|
Db|-2------0------0------2--|
Ab|-3------2------x------2--|
Eb|-x------3------x------0--|

Bridge (lead 1):
(with distortion)
    C2     G      D     Em7
eb|-------------------------|
Bb|-------------------------|
Gb|-5-------------7------9--|
Db|-5------5------7------9--|
Ab|-3------5------5------7--|
Eb|(3)-----3-----(5)-----0--|

Chorus (lead 2)
(with distortion)
eb|------------------------------------------|
Bb|------------------------------------------|
Gb|--12-11--7---12-11--7---12-11--7---12--7--|                   12--14--16~
Db|---x--x--x----x--x--x----x--x--x----x--x--|but last time play -x---x---x
Ab|--10--9--5---10--9--5---10--9--5---10--5--|                   10--12--14~
Eb|------------------------------------------|    instead of last two chords

                          Outro
                       (rhythm only)
Outro
(w/o distortion)
     C2
eb|--3--|
Bb|--3--|
Gb|--0--| strum along
Db|--2--|
Ab|--3--|
Eb|--x--|

Intro/Verse (x8)
Pre-Chorus  (x1)
Chorus      (x4)
Intro/Verse (x4)
Pre-Chorus  (x1)
Chorus      (x4)
Bridge      (x4)
Chorus      (x4)
Outro       (x1)

-Nick Z.  email: zman919191@yahoo.com
Comments