Staind - So Far Away Chords & Tabs

 

So Far Away Chords & Tabs

Staind Chords & Tabs

Version: 13 Type: Tab 0 ratings
1 star 2 stars 3 stars 4 stars 5 stars
comments

So Far Away Tab

   
Okay, well here's the COMPLETE way to play "So Far Away" by Staind off their
newest album '14 Shades Of Grey' My version includes both lead and rhythm, in
which I've notice the other tabs don't have both. I know for a fact this is the
full and real way to play it because A)There's always been 2 Guitars for Staind
and B)If you watch the live version of Staind's video of the song, you can see
that this is the way to play it, plus, the rest of what you can't see, I picked
up by ear. Okay, enough if my blaberring on..here's what you were lookin for...


Artist: Staind
Song: So Far Away
Album: 14 Shades of Grey


Tunnings-

Rhythm Guitar: Down One Half Step
Lead Guitar : Standard

Chords Used (Rhythm):
 
 G    C    D    Em
-3-  -0-  -2-   -0-
-3-  -1-  -3-   -0-
-0-  -0-  -2-   -0-
-0-  -2-  -0-   -2-
-2-  -3-  -0-   -2-
-3-  -0-  -0-   -0-


Intro (Lead): X2
e|--------------------------------------------------|
B|-11--11--11-12--12--12-14--14--14-----------------|
G|---11--11-----11--11-----11--11--13-11-10---------|
D|--------------------------------------------------|
A|--------------------------------------------------|
E|--------------------------------------------------|

e|----------------------------------16-13-----------|
B|-11--11--11-12--12--12-14--14--14------14---------|
G|---11--11-----11--11-----11--11-------------------|
D|--------------------------------------------------|
A|--------------------------------------------------|
E|--------------------------------------------------|

Intro (Rhythm):
G    C    G    D             G    C    G    D
G    C    G    D             G    C    G  


Verse (Lead): X2 (then the first part once)
e|--------------------------------------------------|
B|-11--11--11-12--12--12-14--14--14-----------------|
G|---11--11-----11--11-----11--11--13-11-10---------|
D|--------------------------------------------------|
A|--------------------------------------------------|
E|--------------------------------------------------|

e|----------------------------------16-13-----------|
B|-11--11--11-12--12--12-14--14--14------14---------|  
G|---11--11-----11--11-----11--11-------------------|
D|--------------------------------------------------|
A|--------------------------------------------------|
E|--------------------------------------------------|

Verse (Rhythm):
D          G    C    G               D         G
This is my life    its not what it was before
             C                 G              
All of these feelings Ive shared
D                G       C        G          D          G 
And these are my dreams        that Ive never lived before 
         C            G         D
Somebody shake me cause I        I must be
C
Sleeping


Chorus (Lead): X2
e|--------------------------------------------------|
B|--------------------------------------------------|
G|-----6---8---4------------------------------------|
D|-4---6---8---4------------------------------------|
A|-4---4---6---2------------------------------------|
E|-2------------------------------------------------|

Chorus (Rhythm):
G  D                              Em
   Now that were here, So far away
        C                             G
All the struggle we thought was in vain
           D                  Em
In all the mistakes one life contains
         C                      G
They all finally start to go away
               D              Em
Now that were here, So far away
      C                          G
And I feel like I can face the day
              D                  Em
And I can forget  that I'm not ashamed
          C                     G
To be the person that I am today

[ Tab from: http://www.guitartabs.cc/tabs/s/staind/so_far_away_tab_ver_13.html ]
Verse (Lead): X2 (then the first part once)
e|--------------------------------------------------|
B|-11--11--11-12--12--12-14--14--14-----------------|
G|---11--11-----11--11-----11--11--13-11-10---------|
D|--------------------------------------------------|
A|--------------------------------------------------|
E|--------------------------------------------------|

e|----------------------------------16-13-----------|
B|-11--11--11-12--12--12-14--14--14------14---------|  
G|---11--11-----11--11-----11--11-------------------|
D|--------------------------------------------------|
A|--------------------------------------------------|
E|--------------------------------------------------|


Verse (Rhythm):
             G       C           G         D          G
These are my words,         that ive never said before 
           C         G
I think im doing ok
D           G         C             G         D           G
This is the smile,             that ive never shown before
         C          G        D         C
Somebody shake me cause I,       I must be sleeping


Chorus (Lead): X2
e|--------------------------------------------------|
B|--------------------------------------------------|
G|-----6---8---4------------------------------------|
D|-4---6---8---4------------------------------------|
A|-4---4---6---2------------------------------------|
E|-2------------------------------------------------|


Chorus (Rhythm):
G  D                             Em
   Now that were here, So far away
        C                             G
All the struggle we thought was in vain
           D                  Em
All the mistakes one life contained
         C                      G
They all finally start to go away
               D                Em
Now that were here its so far away
      C                          G
And I feel like I can face the day
              D                   Em
And I can forget, that I'm not ashamed
          C                     G
To be the person that I am today


Brige (Lead):
e|--------------------------------------------------|
B|--------------------------------------------------|
G|-8---6-------3------------------------------------|
D|-8---6---4---3------------------------------------|
A|-6---4---4---1------------------------------------|
E|---------2----------------------------------------|


Bridge (Rhythm):
         G    C  Em  D   G      C     Em    D
Im so afraid of waking, please dont shake me
G      C  Em  D   G      C     Em    D
Afraid of waking, please dont shake me


Chorus (Lead):
e|--------------------------------------------------|
B|--------------------------------------------------|
G|-----6---8---4------------------------------------|
D|-4---6---8---4------------------------------------|
A|-4---4---6---2------------------------------------|
E|-2------------------------------------------------|


Chorus (Rhythm): 
G  D                              Em
   Now that were here , So far away
        C                             G
All the struggle we thought was in vain
           D                  Em
All the mistakes one life contained
         C                      G
They all finally start to go away
               D                  Em
Now that were here, its so far away
      C                          G
And I feel like I can face the day
              D                   Em
And I can forget that I'm not ashamed
          C                     G
To be the person that I am today


...Well there you have it! The full and complete way to play "SoFar Away" I hope
you enjoy playing it!...If you have any questions, comments, suggestions,
complaints, confusion e-mail me @ jm300club@msn.com and ill straighten your
problems out!
Comments