Staind - So Far Away Chords & Tabs

 

So Far Away Chords & Tabs

Staind Chords & Tabs

Version: 11 Type: Tab 0 ratings
1 star 2 stars 3 stars 4 stars 5 stars
comments

So Far Away Tab

   
Hey i was just reading a few of the tabs for this song, and most of them are
pretty well written.  There's just a few notes that are a little different, so
I though i might fix it up a bit.  If there are any mistakes in this please just let me know.

Tabbed by - Dave
Email - dhangley@comcast.net

Tunning - Drop all strings 1 half step (eb Ab Db Gb Bb eb)

Intro/Verse:(guitar 1)
eb|-7--------7-8--------8-10--------10-5----------|
Bb|----8----8-----8----8------8----8-------7------|
Gb|-------9----------9-----------9------------7---|
Db|-----------------------------------------------|
Ab|-----------------------------------------------|
Eb|-----------------------------------------------|

eb|-7--------7-8--------8-10--------10-17---------|
Bb|----8----8-----8----8------8----8-------14-----|
Gb|-------9----------9-----------9------------15--|
Db|-----------------------------------------------|
Ab|-----------------------------------------------|
Eb|-----------------------------------------------|  4x    
  
Intro:(guitar 2)
eb|-----3-3------3-3------3-3------2-2h3----------|
Bb|-----------------------------------------------|
Gb|----0-0------0-0------0-0------0---------------|
Db|----------------------------0------------------|
Ab|----------3------------------------------------|
Eb|-0-----------------3---------------------------|  2x

eb|-3-3------3-3------3-3------2h3----------------|
Bb|-3--------3--------3--------3------------------|
Gb|-x--------0--------0--------2------------------|
Db|-2--------2--------0--------0------------------|
Ab|-2--------3--------2--------0------------------|
Eb|-0-----------------3---------------------------|  2x
[ Tab from: http://www.guitartabs.cc/tabs/s/staind/so_far_away_tab_ver_11.html ]
Verse:(guitar 2)
eb|-3--------3--------3--------3------------------|
Bb|-3--------3--------3--------3------------------|
Gb|-x--------0--------0--------2------------------|
Db|-2--------2--------0--------0------------------|
Ab|-2--------3--------2--------0------------------|
Eb|-0-----------------3---------------------------|  4x

right before the chorus:(guitar 1)
eb -8-------8-8-------8-8-------8-10--|
Bb -----8--8------8--8------8--8------|
Gb -------9---------9---------9-------|
Db -----------------------------------|
Ab -----------------------------------|
Eb -----------------------------------| 

right before the chorus:(guitar 2)
eb -3--------------------3------------|   (hold and strum both chords)
Bb -3--------------------3------------|
Gb -0--------------------2------------|
Db -2--------------------0------------|
Ab -3--------------------0------------|
Eb -----------------------------------|

Chorus
   G5	D5   E5   C5
eb -3----5----7----3---|   
Bb -3----x----x----3---|  <---(if you can't mute this string don't worry)
Gb -4----7----9----5---|
Db -5----7----9----5---|
Ab -5----5----7----3---|
Eb -3----5----7----3---|  4x
                   ^(hold this chord out on the 4th time to go to the next
                                                      verse/bridge/end of song)

Bridge
   
eb -----------------------------------|
Bb -----------------------------------|
Gb -----------------5---7-------------|
Db -2---4---5---7---5---7---2---4-----|
Ab -2---4---5---7---3---5---2---4-----|
Eb -0---2---3---5---3---5---0---2-----|

eb -----------------------------------|
Bb -----------------------------------|    (flows right into final chorus)
Gb -----------------5---7---9---11----|
Db -2---4---5---7---5---7---9---11----|
Ab -2---4---5---7---3---5---7---9-----|
Eb -0---2---3---5---3---5---7---9-----|

intro
verse 1
lead into chorus
chorus 1
verse 2
lead into chorus
chorus 2
bridge
chorus 3
end

Thats the whole song!  Hopefully I got it right, I think i did.  If there's
anything I left out email me and tell me at dhangley@comcast.net   Thanks!
Comments