Staind - So Far Away Chords & Tabs

 

So Far Away Chords & Tabs

Staind Chords & Tabs

Version: 2 Type: Bass Tab 0 ratings
1 star 2 stars 3 stars 4 stars 5 stars
comments

So Far Away Bass Tab

Artist: Staind
Album: 14 shadows of grey
Song: So far away
Record label:
Tab by UnterTaker (minamine@tin.it)
Tune: EADG

Intro - Verse
G|---------------------------------------------------------------|
D|---------------------------0-----------------------------------|
A|-----------3---------------------------------------------------|
E|----3--------------3-------------------------------------------|
[ Tab from: http://www.guitartabs.cc/tabs/s/staind/so_far_away_btab_ver_2.html ]
Pre
G|---------------------------------------------------------------|
D|-----------0---------------------------------------------------|
A|----3----------------------------------------------------------|
E|---------------------------------------------------------------|

Chorus
G|---------------------------------------------------------------|
D|-----------0-0000----------------------------------------------|
A|-------------------------3-3333--------------------------------|
E|----3-3333--------0-0000---------------------------------------|

Bridge
G|---------------------------------------------------------------|
D|---------------------------------------------------------------|
A|---------33333-----55555---------------------------------------|
E|----33333-----00000--------------------------------------------|

X UnderTaker X
Comments