Staind - So Far Away Chords & Tabs

 

So Far Away Chords & Tabs

Staind Chords & Tabs

Version: 1 Type: Bass Tab 0 ratings
1 star 2 stars 3 stars 4 stars 5 stars
comments

So Far Away Bass Tab

These are just the major notes played from chords and that basicaly
makes a bass part, you can play Open D for the D on the A string if its
easier.
G|-----------------------------------|
D|-----------------------------------|
A|----2---3-------5------------------|
E|------------3----------------------| x8
[ Tab from: http://www.guitartabs.cc/tabs/s/staind/so_far_away_btab.html ]
Pre-chorus it may be played im not sure but it fills the space before
chorus
G|---------------------|
D|---------------------|
A|-3-2-0-1-------------|
E|---------------------|

Chorus
G|-------------------------------------------------|
D|-------------------------------------------------|
A|----2-222-3-333-------5-555----------------------|
E|----------------3-333----------------------------|

Thats it then you repeat those mostly it doesnt change much more
thats what i got Thanks.

Submitted By Slapbass05

E-Mail at Slapbass05@aol.com
Comments