Staind - So Far Away Acoustic Chords & Tabs

 

So Far Away Acoustic Chords & Tabs

Staind Chords & Tabs

Version: 1 Type: Tab 1 rating
1 star 2 stars 3 stars 4 stars 5 stars
comments

So Far Away Acoustic Tab

##################################################################################
# This file is the author's own work and represents their interpretation of the  #
# song. You may only use this file for private study, scholarship, or research.  #
##################################################################################


BAND: STAIND
SONG: SO FAR AWAY (ACOUSTIC)
ALBUM: 14 Shades of Grey



I wouldn't post a song i wasn't sure was right unless i've played it out.  Its a good song to sing to but you will find that the chorus will affect your voice so play it in the middle of your set when your voice is warm but not worn out.  Enjoy.

* = Hold note a little longer then the others

INTRO:
   *         *         *        
|--5-------5-6-------6-8-------8-6-5-3--|
|----6---6-----6---6-----6---6----------|
|------7---------7---------7------------|
|---------------------------------------|
|---------------------------------------|
|---------------------------------------|


   /////     ////////  ////////  ////
|--3---------3---------3---------2----2----------|
|--3---------3---------3---------3--------3------|
|--0---------0---------0---------2------2---0----|
|--2---------2---------0-------------------------|
|--2---------3---------2-------------------------|
|----------------------3-------------------------|

[ Tab from: http://www.guitartabs.cc/tabs/s/staind/so_far_away_acoustic_tab.html ]
VERSE:
(You can figure out the timing from listening to the song its not hard)
|--3---------3---------3---------2--------------|--3-----3-------|
|--3---------3---------3---------3--------------|--3-----3-------|
|--0---------0---------0---------2-----------X2-|--0-----0-------|
|--2---------2---------0------------------------|--2-----2-------|
|--2---------3---------2------------------------|--2-----3-------|
|----------------------3------------------------|----------------|(Strum these last two chords the second time through the verse just before the Chorus)
                                                (..be sleeping..) then to chorus.


CHORUS:

   ////////// ////////// ////////// ///////// 
|--3----------2----------3----------3-----------|
|--3----------3----------3----------3-----------|
|--0----------2----------0----------0-----------|
|--0---------------------2----------2-----------|
|--0---------------------2----------3-----------|
|--3--------------------------------------------|


BRIDGE:

   ////////  ///////// /////////    /////////////   (Start into chorus now)
|--3---------3---------3---------|--2--------------------------------------------------|
|--3---------3---------3---------|--3--------------------------------------------------|
|--0---------0---------0-------X3|--2--------------------------------------------------|
|--2---------2---------0---------|-----------------------------------------------------|
|--2---------3---------2---------|-----------------------------------------------------|
|----------------------3---------|-----------------------------------------------------|
 "Afraid of waking......."        (At the end of "Please don't shake me!!", just before you hit the chorus again.)

End strumming:

|-3--|
|-3--|
|-0--|
|-2--|
|-3--|
|----|
"..am today" (You'll figure out the timing.)
Comments