Staind - Self Destruct Chords & Tabs

 

Self Destruct Chords & Tabs

Staind Chords & Tabs

Version: 1 Type: Tab 0 ratings
1 star 2 stars 3 stars 4 stars 5 stars
comments

Self Destruct Tab

   
Band- Staind
Song- Self Destruct

Tuning: (low to high) Db Ab Db Gb Bb Eb

Legend:
p.m=palm mute
h=hammer on
p=pull off
*=harmonic
/=slide up
\=slide down


INTRO:

Eb|-------------------------------------------------------------------|
Bb|-------------------------------------------------------------------|
Gb|-------------------------------------------------------------------|
Db|--------5p4-------------5p4-------------5p4-------------5p4--------|
Ab|--6p5-0-----0-5h6-6p5-0-----0-5h6-6p5-0-----0-5h6-6p5-0-----0-5h6--|
Db|-------------------------------------------------------------------|


INTRO PART 2/CHORUS:                                          
[ Tab from: http://www.guitartabs.cc/tabs/s/staind/self_destruct_tab.html ]
Eb|-----------------------------------------------------------------|
Bb|-----------------------------------------------------------------|
Gb|-----------------------------------------------------------------|
Db|-1p0-0-6p5-0-0-0-1p0-0-6p5-0-0-0-1p0-0-6p5-0-0-0-1p0-0-6p5-0-0-0-|
Ab|-1p0-0-6p5-0-0-0-1p0-0-6p5-0-0-0-1p0-0-6p5-0-0-0-1p0-0-6p5-0-0-0-|
Db|-1p0-0-6p5-0-0-0-1p0-0-6p5-0-0-0-1p0-0-6p5-0-0-0-1p0-0-6p5-0-0-0-|
p.m      .     . . .     .     . . .     .     . . .     .     . . . 


End with this right before the verse, sustain the last chord until the verse:

Eb|--------------------|
Bb|--------------------|
Gb|--------------------|
Db|-1p0-0-6-5-0-1-0~~~-|
Ab|-1p0-0-6-5-0-1-0~~~-|
Db|-1p0-0-6-5-0-1-0~~~-|
p.m .   . . . . . 


VERSE: Some very faint stuff before these harmonics but they are way to hard to hear
so basically it's inaudible

Eb|-*5-*5-*5-*5-|
Bb|-*5-*5-*5-*5-|
Gb|-*5-*5-*5-*5-|
Db|-------------|
Ab|-------------|
Db|-------------|
 

CHORUS?: Part where Aaron starts singing "My Life has slowly faded..."

Eb|----------------------------|
Bb|----------------------------|
Gb|----------------------------|
Db|-1-0-0-1p0-0-0-0-6p5-0-3-3--|
Ab|-1-0-0-1p0-0-0-0-6p5-0-3-3--|
Db|-1-0-0-1p0-0-0-0-6p5-0-3-3--|
p.m   . .     . . .     . . . 


Then play the Chorus

Then back and forth between the Intro and Chorus


BRIDGE/OUTRO:

|--------------------------------|
|--------------------------------|
|--------------------------------|
|--6p5-0-0-4-0-0-3-0-0-0h1-1p0---|
|--6p5-0-0-4-0-0-3-0-0-0h1-1p0---|
|--6p5-0-0-4-0-0-3-0-0-0h1-1p0---|
p.m    . .   . .   . .
Comments