Staind - Schizophrenic Conversations Chords & Tabs

 

Schizophrenic Conversations Chords & Tabs

Staind Chords & Tabs

Version: 1 Type: Tab 0 ratings
1 star 2 stars 3 stars 4 stars 5 stars
comments

Schizophrenic Conversations Tab

Normal Tuning



e|---------------------------------------------1-----|
B|---------------------------------------------------|
G|---3-3---7-5-3-5-5---6-5-3-6-6---6-5-6-3-3-----5-3-|
D|---3---3-------5---5-------6---6-------3---3-------|  7x before chorus
A|---1-----------3-----------3-----------1-----------|
E|---------------------------------------------------|


[ Tab from: http://www.guitartabs.cc/tabs/s/staind/schizophrenic_conversations_tab.html ]
Prechorus (2nd guitar)

e|-------------------------------------------|
B|---7/6-7/6-7/6-7/6-7/6-7/6-7/6-7/6-7/6-7/6-|
G|-------------------------------------------|
D|-------------------------------------------|
A|-------------------------------------------|
E|-------------------------------------------|
















The Chorus will be finished sometime later
Comments