Staind - Right Here Chords & Tabs

 

Right Here Chords & Tabs

Staind Chords & Tabs

Version: 4 Type: Tab 0 ratings
1 star 2 stars 3 stars 4 stars 5 stars
comments

Right Here Tab

   
----------------------------------------------------------------------------
			     Right Here - Staind
----------------------------------------------------------------------------
Tabbed by: Naterack

Tuning: standard (EADGBe)

Intro
e|--10--12--9---7--10--9---9---7--5---7--5---3----5-------------------------|
B|--------------------------------------------------------------------------|
G|--------------------------------------------------------------------------|
D|--------------------------------------------------------------------------|
A|--------------------------------------------------------------------------|
E|--------------------------------------------------------------------------|
Verse
e|---------------------------------------------------------------------------|
B|------------6-------------------4-------------------1----------------------|
G|--------7-----7------------5-------5-----------2-------2--------------4----|
D|------7---7------7-------5----5------5-------2---2-------2--------5----5---|
A|----5---------------5--3---------------3---0---------------0----5---5---5--|
E|--------------------------------------------------------------3----------3-|

e|--------------------------------------------------------------------------|
B|--------------------------------------------------------------------------|
G|--------------------------------------------------------------------------|
D|--------------------------------------------------------------------------|
A|-3333-5--3333-5--3333-5--3333-5--3333-5--3333-5--3333-5-------------------|
E|--------------------------------------------------------------------------|
I know i've been mistaken, but just give me a breakin see the changes that i've made, 
got some imperfections, but how can you collect them all and throw them in my face
Chorus
e|--------------------------------------------------------------------------|
B|--------------------------------------------------------------------------|
G|----7----5----2-----------------------------------------------------------|
D|----7----5----2----5------------------------------------------------------|
A|----5----3----0----5------------------------------------------------------|
E|-------------------3------------------------------------------------------|
but you always find a way to keep me right here waiting, you always find the words to 
to keep me right here waiting, and if you chose to walk away id still be right here 
searching for the things to say to keep you right here waiting
Verse
e|--------------------------------------------------------------------------|
B|--------------------------------------------------------------------------|
G|--------------------------------------------------------------------------|
D|--------------------------------------------------------------------------|
A|-3333-5--3333-5--3333-5--3333-5--3333-5--3333-5--3333-5-------------------|
E|--------------------------------------------------------------------------|
[ Tab from: http://www.guitartabs.cc/tabs/s/staind/right_here_tab_ver_4.html ]
e|---------------------------------------------------------------------------|
B|------------6-------------------4-------------------1----------------------|
G|--------7-----7------------5-------5-----------2-------2--------------4----|
D|------7---7------7-------5----5------5-------2---2-------2--------5----5---|
A|----5---------------5--3---------------3---0---------------0----5---5---5--|
E|--------------------------------------------------------------3----------3-|
I hope your not intending to be so condecending its as much as i can take, your so 
you just refuse to bend so i keep bending till i break
Chorus
e|--------------------------------------------------------------------------|
B|--------------------------------------------------------------------------|
G|----7----5----2-----------------------------------------------------------|
D|----7----5----2----5------------------------------------------------------|
A|----5----3----0----5------------------------------------------------------|
E|-------------------3------------------------------------------------------|
but you always find a way to keep me right here waiting, you always find the words to 
to keep me right here waiting, and if you chose to walk away id still be right here 
searching for the things to say to keep you right here waiting
Bridge
e|--------------------------------------------------------------------------|
B|--------------------------------------------------------------------------|
G|---5-5---5--2----5-5---5--2----5-5---5--2---------------------------------|
D|---5-5---5--2----5-5---5--2----5-5---5--2---------------------------------|
A|---3-3---3--0----3-3---3--0----3-3---3--0---------------------------------|
E|--------------------------------------------------------------------------|
I've made a commitment, im willing to bleed for you, i needed fulfillment, fulfillment i need in you

e|---------------------------------------------------------------------------|
B|------------6-------------------4-------------------1----------------------|
G|--------7-----7------------5-------5-----------2-------2--------------4----|
D|------7---7------7-------5----5------5-------2---2-------2--------5----5---|
A|----5---------------5--3---------------3---0---------------0----5---5---5--|
E|--------------------------------------------------------------3----------3-|
Why can't you just forgive me, i don't want to relive all the mistakes i've made wo-oh, oh oh
chorus acoustic
e|--------------------------------------------------------------------------|
B|--------------------------------------------------------------------------|
G|----7-7-7-7---5-5-5-5----2-2-2-2------------------------------------------|
D|----7-7-7-7---3-5-5-5----2-2-2-2----5-5-5-5-------------------------------|
A|----5-5-5-5---3-3-3-3----0-0-0-0----5-5-5-5-------------------------------|
E|------------------------------------3-3-3-3-------------------------------|
but i always find a way to keep you right here waiting, i always find the words to say 
keep you right here waiting
Chorus
e|--------------------------------------------------------------------------|
B|--------------------------------------------------------------------------|
G|----7----5----2-----------------------------------------------------------|
D|----7----5----2----5------------------------------------------------------|
A|----5----3----0----5------------------------------------------------------|
E|-------------------3------------------------------------------------------|
Chorus lead
e|--------------------------------------------------------------------------|
B|--------------------------------------------------------------------------|
G|---7---5---2--------------------------------------------------------------|
D|---x---x---x---5----------------------------------------------------------|
A|---5---3---0---x----------------------------------------------------------|
E|---------------3----------------------------------------------------------|
but you always find a way to keep me right here waiting, you always find the words to 
to keep me right here waiting, and if you chose to walk away id still be right here 
searching for the things to say to keep you right here waiting


| /  slide up
| \  slide down
| h  hammer-on
| p  pull-off
| ~  vibrato
| +  harmonic
| x  Mute note
============================================================================
Comments