Staind - Right Here Chords & Tabs

 

Right Here Chords & Tabs

Staind Chords & Tabs

Version: 3 Type: Tab 0 ratings
1 star 2 stars 3 stars 4 stars 5 stars
comments

Right Here Tab

   
Band: Staind
Song: Right Here
Tabber: Carlson2000

NOTE: Ok, heres my tab to the brand new staind song. Its not fully done as you can tell 
the song and the tab (guitar 2 parts needed and such..) but it'll do as a first draft of 
tab.

Intro
=====

Guitar 1;

e|---------------------|
B|---------------------|
G|---------------------|
D|-8~--6~--4~--3~/6-8--|
A|-8~--6~--4~--3~/6-8--|
E|-6~--4~--2~--1~/6-6--|

Guitar 2;

Finger picking of above chords (haven't worked it out yet)

Verse
=====
Guitar 1;

e|-------------------------|
B|-------------------------|
G|-------------------------|
D|-8~8~--6~6~--4~--3~/6-8~-|  x2
A|-8~8~--6~6~--4~--3~/6-8~-|
E|-6~6~--4~4~--2~--1~/6-6~-|
[ Tab from: http://www.guitartabs.cc/tabs/s/staind/right_here_tab_ver_3.html ]
Guitar 2;

e|-----------|
B|-----------|
G|-----------| (Repeat loads of times
D|-----------|
A|-4444444h6-|
E|-----------|

Chorus x4
======

(Hold last strum of each chord until moving onto next one)

e|-----------------------|
B|-----------------------|
G|-----------------------|
D|-11----10----8----4----|
A|-11-x8-10-x8-8-x8-4-x8-|
E|-9-----8-----6----2----|

Verse x2
=====

Chorus x4
======

Bridge
======

e|----------|
B|----------|
G|----------| x8
D|-8-8-8-4~-|
A|-8-8-8-4~-|
E|-6-6-6-2~-|

Post-bridge
===========
Same as intro

Chorus
======

(Acoustic) x2
Distortion x4

End on
======

e|---|
B|---|
G|---|
D|-8-|
A|-8-|
E|-6-|
Comments