Staind - Right Here Chords & Tabs

 

Right Here Chords & Tabs

Staind Chords & Tabs

Version: 3 Type: Bass Tab

Right Here Bass Tab

   
Tuning:Drop D

Intro
G|-----------------------------------------|
D|-----------------------------------------|
A|------------------------------------11-13|
D|--8--------6--------4----3--6--8---------|

Verse (play twice)
G|---------------------------------------------------------------------|
D|---------------------------------------------------------------------|
A|---------------------------------------------------------------------|
D|-88-888-888-888-8-66-666-666-666-6-44-444-4-33-3-66-6-88-888-888-888-|

Chorus (play four times)
G|-------------------------------------|
D|-------------------------------------|
A|-------------------------------------|
D|-00000000-33333333-88888888-44444444-|

After Chorus
G|---------|
D|---------|
A|-------13|
D|--8------|
[ Tab from: http://www.guitartabs.cc/tabs/s/staind/right_here_btab_ver_3.html ]
Verse (play twice)
G|---------------------------------------------------------------------|
D|---------------------------------------------------------------------|
A|---------------------------------------------------------------------|
D|-88-888-888-888-8-66-666-666-666-6-44-444-4-33-3-66-6-88-888-888-888-|

Chorus (play four times)
G|-------------------------------------|
D|-------------------------------------|
A|-------------------------------------|
D|-00000000-33333333-88888888-44444444-|

Bridge (play nine times)
G|---------|
D|---------|
A|-1-1-1---|
D|-------4-|

Verse (Lightly)
G|--------------------------------------|
D|--------------------------------------|
A|--------------------------------------|
D|--8--------6--------4----3--6--8----8-|

Chorus (Lightly...play twice and on the second time hold the first 4)
G|-------------------------------------|
D|-------------------------------------|
A|-------------------------------------|
D|-00000000-33333333-88888888-44444444-|

Ending (Keep repeating till end, the 8 is the last note so don't play it till the end)
G|----------------------------------------|
D|----------------------------------------|
A|----------------------------------------|
D|-00000000-33333333-88888888-44444444-(8)|