Staind - Right Here Chords & Tabs

 

Right Here Chords & Tabs

Staind Chords & Tabs

Version: 1 Type: Bass Tab 0 ratings
1 star 2 stars 3 stars 4 stars 5 stars
comments

Right Here Bass Tab

----------------------------------------------------------------------------
			     Right Here - Staind
----------------------------------------------------------------------------

Tabbed By : dagohbah aka Jacob
e-mail: dagohbah@hotmail.com

Tuning: Standard

Verse

G|---------------------------------------------------------------------------|
D|---------------------------------------------------------------------------|
A|---------------------------------------------------------------------------|
E|-6-6-6--4-4-4--3-3-3-2-2-2--4-4-6-6-6--------------------------------------|

Chorus
[ Tab from: http://www.guitartabs.cc/tabs/s/staind/right_here_btab.html ]
G|---------------------------------------------------------------------------|
D|---------------------------------------------------------------------------|
A|-4-4-4-4-------------------------------------------------------------------|
E|---------4-4-4-4-6-6-6-6-2-2-2-2-------------------------------------------|

Bridge

G|---------------------------------------------------------------------------|
D|---------------------------------------------------------------------------|
A|---------------------------------------------------------------------------|
E|-6-6-6--2------------------------------------------------------------------|

Bridge Alteration (Either one will do!)

G|---------------------------------------------------------------------------|
D|---------------------------------------------------------------------------|
A|-1-1-1-1-------------------------------------------------------------------|
E|---------2-----------------------------------------------------------------|
Comments