Staind - Reality Chords & Tabs

 

Reality Chords & Tabs

Staind Chords & Tabs

Version: 1 Type: Tab 0 ratings
1 star 2 stars 3 stars 4 stars 5 stars
comments

Reality Tab

Yo, Carlos Martinez here, this is a more heavier song but still pretty, Aaron's
lyrics hit hard with the guitar, its awesome,spent a lot of time on it thinking
about "mew", so here's the song..

Intro/Verses

|------------------------------------------------------------------------------
|------------------------------------------------------------------------------
|-----------0------0-----------------------------------------------------------
|------4------4-------4--0----------4--0---3--0----0---------------------------
|---2----2------2------------0--1----------------4---2--0----------------------
|----------------------------------------------------------4-------------------

Chorus-
[ Tab from: http://www.guitartabs.cc/tabs/s/staind/reality_tab.html ]
|------------------------------------------------------------------------------
|------------------------------------------------------------------------------
|---6--7/0--6---------7/0------------------------------------------------------
|---6-------6---8---9----------------------------------------------------------
|---4-------4---8---9----------------------------------------------------------
|---------------6---7----------------------------------------------------------

Interlude-

|------------------------------------------------------------------------------
|------------------------------------------------------------------------------
|---6-------6------------------------------------------------------------------
|---6---4---4------------------------------------------------------------------
|---4---4---4------------------------------------------------------------------
|-------2----------------------------------------------------------------------
Comments