Staind - Raw Chords & Tabs

 

Raw Chords & Tabs

Staind Chords & Tabs

Version: 1 Type: Tab 0 ratings
1 star 2 stars 3 stars 4 stars 5 stars
comments

Raw Tab

SONG: Raw
BAND: Staind
ALBUM: Dysfunction
TRANSCRIBED BY: Rudy  (http://www.geocities.com/creed989)
[ Tab from: http://www.guitartabs.cc/tabs/s/staind/raw_tab.html ]
I haven't seen any postings of this song so far. So I decided to try and tab it.
Try it out and see if it sounds cool
        
          
          	TUNING: Try dropped D tuning (Down 1 1/2 steps) or  ( C#, G#, C#, F#, Bb, Eb, )
          
          
               INTRO:
          
             Eb|------------------------------------|
             Bb|-------------------------------5^6--|
             Gb|---------------------------4^5------|
             Db|------0-0-----0-----0-0-0-----------|
             Ab|--0^1-0-0-0^1-0-0^1-0-0-0-----------|
             Db|--0^1-0-0-0^1-0-0^1-0-0-0-----------|
                      ---     -     -----  (underlined parts are palm muted)
               VERSE:               
                                          
             Eb|---------------------------------------------------|
             Bb|---------------------------------------------------|
             Gb|------------------------------0----0-------0----0--|
             Db|-----7---7-------7----7----------------------------|
             Ab|---------------------------------------------------|
             Db|---4---4---4---5----5---5---1----1---1---1---1-----|
                  
               CHORUS:
             Eb|--------------------|--------------|
             Bb|--------------------|--------------|
             Gb|--------------------|--------------| 
             Db|--5----6------------|--------3-----|
             Ab|--3----4------------|--end:--1-----|
             Db|--3----3------------|--------1-----| 
          
               BRIDGE PART 1: (whammy pedal makes it sound one octave lower)
          
             Eb|---------------------------------------------------------------------|
             Bb|---------------------------------------------------------------------|
             Gb|---------------------------------------------------------------------|
             Db|---------------------------------------------------------------------|
             Ab|---------------------------------------------------------------------|
             Db|--7-7-7-7-8-8-8-8-7-7-7-7-8-8-8-8-7-7-7-7-8-8-8-8-12-11-12-11-12-11--|
          
               BRIDGE PART 2: (whammy pedal makes it sound one octave lower)
                  
             Eb|-------------------------------------------------------------------|
             Bb|-------------------------------------------------------------------|
             Gb|-------------------------------------------------------------------|
             Db|-------------------------------------------------------------------|
             Ab|------------------------------------------12-\-11-12-\-11-12-\-11--|
             Db|--7-7-8-7-8-7-7-8-7-8-7-7-8-7-8-7-7-8-7-8-12-\-11-12-\-11-12-\-11--|
          
          
-Rudy
http://www.geocities.com/creed989
Comments