Staind - Price To Play Chords & Tabs

 

Price To Play Chords & Tabs

Staind Chords & Tabs

Version: 6 Type: Tab 0 ratings
1 star 2 stars 3 stars 4 stars 5 stars
comments

Price To Play Tab

   
-------------------------------------------------------------------------------
			     Staind-Price To Play
-------------------------------------------------------------------------------

Tabbed by:Jeremy

Tuning:I play this in B Tuning because u can!!!!!!I dont want here crap about
o well its a baritone,or its a 7-sting(even thought it isn't!) because u could
still tune down to play this songs!
[ Tab from: http://www.guitartabs.cc/tabs/s/staind/price_to_play_tab_ver_6.html ]
Intro/Verse(except in verse u hand mute and pick a little faster)
e|--------------------------------------------------------------------------|R
B|--------------------------------------------------------------------------|E
E|--------------------------------------------------------------------------|P
B|--2-2-0-0--2-2-0-0--------------------------------------------------------|E
F#--2-2-0-0--2-2-0-0--------------------------------------------------------|A
B|--2-2-0-0--2-2-0-0--------------------------------------------------------|T
Pre-CHorus("Can u see!")
e|--------------------------------------------------------------------------|R
B|--------------------------------------------------------------------------|E
E|--------------------------------------------------------------------------|P
B|--2-0--2-0--2-0-----------------------------------------------------------|E
F#--2-0--2-0--2-0--Keap Repeating-------------------------------------------|A
B|--2-0--2-0--2-0-----------------------------------------------------------|T
Chorus(not the approximate strumming,but figure it out)(x=times)
e|--------------------------------------------------------------------------|R
B|--8x--8x------------------------------------------------------------------|E
E|--------------------------------------------------------------------------|P
B|--12--14--16-16-16-16-16-17-17-19-19--------------------------------------|E
F#--10--12--14-14-14-14-14-14-14-14-14--------------------------------------|A
B|--10--12--14-14-14-14-14-14-14-14-14--------------------------------------|T
Bridge
e|--------------------------------------------------------------------------|R
B|--------------------------------------------------------------------------|E
E|-------------------7-7----------------------------------------------------|P
B|--2-2-2-2-2-2-2-2--7-7----------------------------------------------------|E
F#--2-2-2-2-2-2-2-2--5-5----------------------------------------------------|A
B|--2-2-2-2-2-2-2-2---------------------------------------------------------|T

Thats about it,it sounds pretty right,if u play it the way its tabbbed!


| /  slide up
| \  slide down
| h  hammer-on
| p  pull-off
| ~  vibrato
| +  harmonic
| x  Mute note

===============================================================================
Comments