Staind - Price To Play Chords & Tabs

 

Price To Play Chords & Tabs

Staind Chords & Tabs

Version: 5 Type: Tab 0 ratings
1 star 2 stars 3 stars 4 stars 5 stars
comments

Price To Play Tab

   
this is the new song of staind
TITLE:PRICE TO PLAY
ALBUM:14 SHADES OF GREY
TUNING:Ab Db Ab Db Gb Bb

INTRO

Ab---5-----3-----5-----3-----555--3-----5-----3-----5-----3-----5----66---
Db---7-----5-----7-----5-----777--5-----7-----5-----7-----5-----7----88---
Ab---5-----3-----5-----3-----555--3-----5-----3-----5-----3-----5----66---
Db---7-----5-----7-----5-----777--5-----7-----5-----7-----5-----7----88---
Gb------------------------------------------------------------------------
Bb------------------------------------------------------------------------

VERSO PALM MUTED
[ Tab from: http://www.guitartabs.cc/tabs/s/staind/price_to_play_tab_ver_5.html ]
Ab---5-----3-----5-----3-----555--3-----5-----3-----5-----3-----5----66---
Db---7-----5-----7-----5-----777--5-----7-----5-----7-----5-----7----88---
Ab------------------------------------------------------------------------
Db------------------------------------------------------------------------
Gb------------------------------------------------------------------------
Bb------------------------------------------------------------------------

CHORUS

GUITAR 1

Ab---------------------------------------
Db-8-------10------12-----12-------------
Ab-8-------10------12-----12-------------
Db-10------12------12-----14-------------
Gb---------------------------------------
Bb---------------------------------------

GUITAR 2

Ab-1-------3-------5------5--------------
Db-3-------5-------7------7--------------
Ab-1-------3-------5------5--------------
Db-3-------5-------7------7--------------
Gb------------------------9--------------
Bb---------------------------------------

BRIDGE


Ab---5--5--5--5--5--5--5--10-10-10-----
Db---7--7--7--7--7--7--7--10-10-10-----
Ab---5--5--5--5--5--5--5--10-10-10-----
Db---7--7--7--7--7--7--7--10-10-10-----
Gb-------------------------------------
Bb-------------------------------------

BY:LUIGI ("STED") FROM ITALY  |(W STAIND)|
Comments