Staind - Price To Play Chords & Tabs

 

Price To Play Chords & Tabs

Staind Chords & Tabs

Version: 4 Type: Tab 0 ratings
1 star 2 stars 3 stars 4 stars 5 stars
comments

Price To Play Tab

Song: Price To Play
Artist: Staind
tabbed by: Randy Cornett
e-mail: thursday_calgone@hotmail.com

I absolutely hate this song with a passion, but since there is nothing else to
do, I'll tab this for the people who do like Staind. Now, in Guitar World, Mike
said that the tuning he uses for this song is so messed up, you can't properly
give it a name. So this is the tuning: G D A D G B. I don't even fool around with
weird tunings so I just go to D. Anyway, here's what I have:

Intro
e--------------------------------------------|
B--------------------------------------------|
G--------------------------------------------|
D--------------------------------------------|
A-----0-----5--0-----0-----5--0-----0--5--5--|
D--7-----7--5-----7-----7--5-----7-----5--5--|

e---------------------------------------------|
B---------------------------------------------|
G---------------------------------------------|
D---------------------------------------------|
A-----0-----5--0-----0-----5--0-----0-----0~--|
D--7-----7--5-----7-----7--5-----8-----8------|

Verse
the verse is every thing above palm muted
[ Tab from: http://www.guitartabs.cc/tabs/s/staind/price_to_play_tab_ver_4.html ]
(Pre Chorus)
e-------------------------------------------------------|
B-------------------------------------------------------|
G--0-------0-------0-------0-------0--------------------|
D--0-------0-------0-------0-------0--------------------|
A--0---5---0---5---0--5----0---5---0---5---10-10-10-10--|
D------5-------5------5--------5-------5---10-10-10-10--|
"can you see?"

e---------------------------------------------------|
B-----------------------------------------6-6-6-6---|
G--0-------0-------0-------0-------0------6-6-6-6---|
D--0-------0-------0-------0-------0------6-6-6-6---|
A--0---5---0---5---0---5---0---5---0---5--6-6-6-6---|
D------5-------5-------5-------5-------5------------|

(Chorus)
e-----------------------------------------------------------------------------|
B-----------------------------------------------------------------------------|
G-10-10-10-10-10-10--12-12-12-12-12-12--14-14-14-14-14-14--15-15-15-15-15-15--|
D--8--8--8--8--8--8--10-10-10-10-10-10--12-12-12-12-12-12--12-12-12-12-12-12--|
A--8--8--8--8--8--8--10-10-10-10-10-10--12-12-12-12-12-12--12-12-12-12-12-12--|
D-----------------------------------------------------------------------------|

(Bridge and Outro)
e----------------------------------------------------|
B----------------------------------------------------|
G----------------------------------------------------|
D--7---7---7-7---7---7---7---7---7-7--5-5-5-5-5-5----|
A--7---7---7-7---7---7---7---7---7-7--5-5-5-5-5-5----|
D--7---7---7-7---7---7---7---7---7-7--5-5-5-5-5-5----|
"What you pay t o play the game"
Comments