Staind - Price To Play Chords & Tabs

 

Price To Play Chords & Tabs

Staind Chords & Tabs

Version: 2 Type: Tab 0 ratings
1 star 2 stars 3 stars 4 stars 5 stars
comments

Price To Play Tab

   
From the upcoming album "14 Shades of Grey", coming 5/20/03. 
Tabbed by Jaiber.  

Drop-D tuning.




e| --x-----x----x-----x----x-----x----x-----x----x-----x----x------x--x--x--
b| --x-----x----x-----x----x-----x----x-----x----x-----x----x------x--x--x--
g| --x-----x----x-----x----x-----x----x-----x----x-----x----x------x--x--x--
d| --11----9----11----9----11----9----11----9----11----9----11--/--12-12-12-  
a| --11----9----11----9----11----9----11----9----11----9----11--/--12-12-12-   
D| --11----9----11----9----11----9----11----9----11----9----11--/--12-12-12- 



<"Can you see?" part - no mute, just like intro in pattern.>



e| --x-- --x--  --x--  
b| --x-- --x--  --x--  
g| --9-- --11-- --13--
d| --9-- --11-- --14--
a| --7--  --9-- --11--    
D| --7--  --9-- --11--

<"ONCE YOU PAY..." part -- just like verse, muted w/heavy distortion.>

Failed to see,
How destructive we can be.
Taking witout giving back,
Till the damage can be seen,
Can you see?
Can you see?
[ Tab from: http://www.guitartabs.cc/tabs/s/staind/price_to_play_tab_ver_2.html ]
The more you take,
The more you blame,
But everything still feels the same.
The more you hurt,
The more you scream,
The price you pay to play the game,
Then all you see,
And all you gain,
And all you step on with the shame,
There are no rules,
No one to blame,
The price to play the game.

Empathy, the chosen way to be,
Blindly look the other way,
While you waste away with me,
Can you see?
Can you see?

The more you take,
The more you blame,
But everything still feels the same.
The more you hurt,
The more you scream,
The price you pay to play the game,
Then all you see,
And all you gain,
And all you step on with the shame,
There are no rules,
No one to blame,
The price to play the game.

Once you pay to play the game,
Once you pay to play the game,
Once you pay to play the game,
ONCE YOU PAY TO PLAY THE GAME!

The more you take,
The more you blame,
But everything still feels the same.
The more you hurt,
The more you scream,
The price you pay to play the game,
Then all you see,
And all you gain,
And all you step on with the shame,
There are no rules,
No one to blame,
The price to play the game.

ONCE YOU PAY TO PLAY THE GAME!,
ONCE YOU PAY TO PLAY THE GAME!,
ONCE YOU PAY TO PLAY THE GAME!,
ONCE YOU PAY TO PLAY THE GAME!
Comments