Staind - Outside Chords & Tabs

 

Outside Chords & Tabs

Staind Chords & Tabs

Version: 16 Type: Tab 0 ratings
1 star 2 stars 3 stars 4 stars 5 stars
comments

Outside Tab

   
staind
outside


This is the studio version.  I tabbed it from the MTV Unplugged music video AND from listening
to the studio version.
Mostly all the tabs for the acoustic parts are wrong, so here you have it, the right way to do it.
Also, i tabbed the electric parts as Mike Mushok plays it, in particular on the right tuning.  Enjoy!


INTRO/VERSE

       E5         D5         G         Asus2
Eb|--x-x-x-x----0-0-0-0----x-x-x-x----x-x-x-x----|
Bb|--0-0-0-0----0-0-0-0----0-0-0-0----0-0-0-0----|
Gb|--9-9-9-9----7-7-7-7----0-0-0-0----0-0-0-0----|
Db|--9-9-9-9----7-7-7-7----0-0-0-0----7-7-7-7----|
Ab|--7-7-7-7----5-5-5-5----5-5-5-5----7-7-7-7----|
Eb|--0-0-0-0----x-x-x-x----3-3-3-3----5-5-5-5----|



CHORUS

       E         G(type2)    D         Asus2(type2)
Eb|--0-0-0-0----3-3-3-3----2-2-2-2----0-0-0-0----|
Bb|--0-0-0-0----3-3-3-3----3-3-3-3----0-0-0-0----|
Gb|--1-1-1-1----0-0-0-0----2-2-2-2----2-2-2-2----|
Db|--2-2-2-2----0-0-0-0----0-0-0-0----2-2-2-2----|
Ab|--2-2-2-2----2-2-2-2----x-x-x-x----0-0-0-0----|
Eb|--0-0-0-0----3-3-3-3----x-x-x-x----x-x-x-x----|



I've also included the electric parts.  Here ya go!


INTRO - Clean.

     E5                   D5
Bb|--------------13----------------------12-----------|
Gb|--16----16-------16----14-------14-------14----14--|
Db|-----14----14-------14-------14----14-------14-----|
Bb|---------------------------------------------------|
Eb|---------------------------------------------------|
Ab|---------------------------------------------------|

     G                    Asus2
Bb|-----------10----------12--------------------------|
Gb|-----12----------12----------12------12------------|
Db|--12----12----------12----------9h10----10---------|
Bb|---------------------------------------------------|
Eb|---------------------------------------------------|
Ab|---------------------------------------------------|



VERSE - Clean.

     E5                   D5
Bb|--------------13----------------------12-----------|
Gb|--16----16-------16----14-------14-------14----14--|
Db|-----14----14-------14-------14----14-------14-----|
Bb|---------------------------------------------------|
Eb|---------------------------------------------------|
Ab|---------------------------------------------------|\
                                                       PLAY
     G                    Asus2                         x3
Bb|-----------10----------12------------------10------|/
Gb|-----12----------12----------12------12-------12---|
Db|--12----12----------12----------9h10----10---------|
Bb|---------------------------------------------------|
Eb|---------------------------------------------------|
Ab|---------------------------------------------------|

     E5                   D5
Bb|--------------13----------------------12-----------|
Gb|--16----16-------16----14-------14-------14----14--|
Db|-----14----14-------14-------14----14-------14-----|
Bb|---------------------------------------------------|
Eb|---------------------------------------------------|
Ab|---------------------------------------------------|

     G                    Asus2 
Bb|-----------10----------12--------------------------|
Gb|-----12----------12----------12------12------------|
Db|--12----12----------12----------9h10----10---------|
Bb|---------------------------------------------------|
Eb|---------------------------------------------------|
Ab|---------------------------------------------------|



CHORUS - Distorted.

     E                          G(type2)                    
Bb|-----------------------------------------------------------------|
Gb|-----------------------------------------------------------------|
Db|------------------------------------12--------9--------10/-------|
Bb|--0-----0----0-0-----0---0-0-10----------------------------------|
Eb|--0-----0----0-0-----0---0-0-10----------------------------------|
Ab|--7-----7----7-7-----7---7-7-10----------10-------10-------------|\
                                                                     PLAY  
     D                          Asus2(type2)                          x2
Bb|-----------------------------------------------------------------|/
Gb|-----------------------------------------------------------------|
Db|-----------------------------------------------10----------------|
Bb|--5-----5-----------5-/------12-------12------------12---10---8--|
Eb|--5-----5-----------5-/------12---0--------0---------------------|
Ab|--5-----5-----------5-/------12----------------------------------|



POST-CHORUS - Distorted.
[ Tab from: http://www.guitartabs.cc/tabs/s/staind/outside_tab_ver_16.html ]
     E5                        D5
Bb|-----------------------------------------------------------------|
Gb|-----------------------------------------------------------------|
Db|-----------------2---2-------------------------------------------|
Bb|--12/----0-------0---0------5---------5-------------------5---5/-|
Eb|--12/----0-------0---0------5---------5-------------------5---5/-|
Ab|----------------------------5---------5-------------------5---5/-|

     G                         Asus2
Bb|-----------------------------------------------------------------|
Gb|-----------------------------------------------------------------|
Db|--------12------9-------10---------------------------------------|
Bb|--10------------------------5------------------------------------|
Eb|--10------------------------5------------------------------------|
Ab|--10--------10------10-------------------------------------------|



BRIDGE PART 1 GUITAR 1 - Distorted.  Only played once over guitar 2.

     E5                        D5
Bb|--9------9------9---7---9--10-/----------------------------------|
Gb|-------------------------------------7---7---7---11--9---7---7---|
Db|--6------6------6---4---6---7-/----------------------------------|
Bb|-------------------------------------3---3---3---7---5---3---3---|
Eb|-----------------------------------------------------------------|
Ab|-----------------------------------------------------------------|

     G                         Asus2
Bb|-----------------------------0-------0---0---0---0---0---0---0---|
Gb|--9-----7---7---11---9---7---9-----------9---9---9---9---9---9---|
Db|-----------------------------------------------------------------|
Bb|--5-----3---3----7---5---3---5-----------5---5---5---5---5---5---|
Eb|-----------------------------------------------------------------|
Ab|-----------------------------------------------------------------|



BRIDGE PART 1 GUITAR 2 - Distorted.

     E5                        D5
Bb|-----------------------------------------------------------------|
Gb|-----------------------------------------------------------------|
Db|-----------------2---2----------------------------------------0--|
Bb|--12/----0-------0---0------5---------5-----------------------0--|
Eb|--12/----0-------0---0------5---------5-------------------5------|
Ab|----------------------------5---------5-------------------5------|\
                                                                     PLAY
     G                         Asus2                                  x4
Bb|-----------------------------------------------------------------|/
Gb|-----------------------------------------------------------------|
Db|--------12------9-------10-----------------------10--------------|
Bb|--10------------------------12----------12------------12--10--8--|
Eb|--10------------------------12------0--------0-------------------|
Ab|--10--------10------10------12-----------------------------------|



BRIDGE PART 2 - Clean.

     E5                   D5
Bb|--------------13----------------------12-----------|
Gb|--16----16-------16----14-------14-------14----14--|
Db|-----14----14-------14-------14----14-------14-----|
Bb|---------------------------------------------------|
Eb|---------------------------------------------------|
Ab|---------------------------------------------------|

     G                    Asus2
Bb|-----------10----------12--------------------------|
Gb|-----12----------12----------12------12------------|
Db|--12----12----------12----------9h10---------------|
Bb|---------------------------------------------------|
Eb|---------------------------------------------------|
Ab|---------------------------------------------------|



CHORUS - No electric.  Just play chords on acoustic.

     E                          G(type2)                    
Bb|-----------------------------------------------------------------|
Gb|-----------------------------------------------------------------|
Db|-----------------------------------------------------------------|
Bb|-----------------------------------------------------------------|
Eb|-----------------------------------------------------------------|
Ab|-----------------------------------------------------------------|\
                                                                     PLAY  
     D                          Asus2(type2)                          x2
Bb|-----------------------------------------------------------------|/
Gb|-----------------------------------------------------------------|
Db|-----------------------------------------------------------------|
Bb|-----------------------------------------------------------------|
Eb|-----------------------------------------------------------------|
Ab|-----------------------------------------------------------------|
Comments