Staind - Outside Chords & Tabs

 

Outside Chords & Tabs

Staind Chords & Tabs

Version: 14 Type: Tab 0 ratings
1 star 2 stars 3 stars 4 stars 5 stars
comments

Outside Tab

   
Outside (Studio ver.)


Band: Staind
Album: Break the cycle
Tuning: Db Ab Db Gb Bb Eb (Low to high)
Here's the TAB for the electric guitar.  


Intro
||--------------------------------|--------------------------------|
||12------12------13--12----------|----------------12--------------|
||----------------------------14--|--------14----------14------14--|
||----14------14----------14------|----14------14----------14------|
||--------------------------------|--------------------------------|
||--------------------------------|--------------------------------|
||1   +   2   +   3   +   4   +   |1   +   2   +   3   +   4   +   |

|--------------------------------|--------------------------------||
|------------10--------------12--|--------------------------------||
|----12--------------12----------|----12----------12-----(12)----||
|12------12--------------12------|--------9-/-10------------------||
|--------------------------------|--------------------------------||
|--------------------------------|--------------------------------||
|1   +   2   +   3   +   4   +   |1   +   2   +   3   +   4   +   ||


Verses:
||--------------------------------|--------------------------------|
||12------12------13--12----------|----------------12--------------|
||----------------------------14--|--------14----------14------14--|
||----14------14----------14------|----14------14----------14------|
||--------------------------------|--------------------------------|
||--------------------------------|--------------------------------|
||1   +   2   +   3   +   4   +   |1   +   2   +   3   +   4   +   |

|--------------------------------|--------------------------------||
|------------10--------------12--|--------------------------------||
|----12--------------12----------|----12----------12-----10------||
|12------12--------------12------|--------9-/-10------10------12--||
|--------------------------------|--------------------------------||
|--------------------------------|--------------------------------||
|1   +   2   +   3   +   4   +   |1   +   2   +   3   +   4   +   ||


Chorus
||--------------------------------|--------------------------------|
||--------------------------------|--------------------------------|
||--------------------------------|--------7---------------5\------|
||2-------2------(2)------2-----5-|5---------------9---------------|
||2-------2------(2)------2---x-5-|5-------------------------------|
||2-------2------(2)------2---x-5-|5-----------5-------5-----------|
||1   +   2   +   3   +   4   +   |1   +   2   +   3   +   4   +   |

|--------------------------------|--------------------------------|
|--------------------------------|--------0-------1-p-0-----------|
|--------------------------------|2-----------------------2-p-0---|
|0-------0------(0)------0-------|2-------------------------------|
|0-------0------(0)------0-------|0-------------------------------|
|0-------0------(0)------0---2-2-|----2-------2-------------------|
|1   +   2   +   3   +   4   +   |1   +   2   +   3   +   4   +   |

|--------------------------------|--------------------------------|
|--------------------------------|--------------------------------|
|--------------------------------|--------------------------------|
|2-------2------(2)--2---2---0---|--------0------(0)------0---0-0-|
|2-------2------(2)--2---2---0---|--------0------(0)------0---0-0-|
|2-------2------(2)--2---2---0---|--------0------(0)------0---0-0-|
|1   +   2   +   3   +   4   +   |1   +   2   +   3   +   4   +   |
[ Tab from: http://www.guitartabs.cc/tabs/s/staind/outside_tab_ver_14.html ]
|--------------------------------|--------------------------------||
|--------------------------------|--------------------------------||
|--------------------------------|--------------------------------||
|--------7---------------5-------|--------------------------------||
|5---------------9-----------7---|(7)-----------------------------||
|5---------------------------7---|(7)-----------------------------||
|5-----------5-------5-------7---|(7)-----------------------------||
|1   +   2   +   3   +   4   +   |1   +   2   +   3   +   4   +   ||



Interlude:
||--------------------------------|--------------------------------|
||--------------------5-----------|--------------------------------|
||--------------------4-----------|--------------------------------|
||14----\2------(2)--2---0---12--|(12)---\0------(0)------0---0-0-|
||14-----\2------(2)------0---12--|(12)---\0------(0)------0---0-0-|
||14-----\2------(2)----------12--|(12)---\0------(0)------0---0-0-|
||1   +   2   +   3   +   4   +   |1   +   2   +   3   +   4   +   |

|--------------------------------|--------------------------------||
|----------------------------0---|(0)-----0-------1---0-----------||
|--------7---------------5---2---|(2)---------------------2---0---||
|5---------------9-----------2---|(2)-----------------------------||
|5---------------------------0---|(0)-----------------------------||
|5-----------5-------5-----------|----2-------2-------------------||
|1   +   2   +   3   +   4   +   |1   +   2   +   3   +   4   +   ||



Bridge:
||--------------------------------|--------------------------------|
||--------------------5-----------|--------------------------------|
||--------------------4-----------|--------------------------------|
||14----\2------(2)--2---0---12--|(12)---\0------(0)------0---0-0-|
||14-----\2------(2)------0---12--|(12)---\0------(0)------0---0-0-|
||14-----\2------(2)----------12--|(12)---\0------(0)------0---0-0-|
||1   +   2   +   3   +   4   +   |1   +   2   +   3   +   4   +   |

|--------------------------------|--------------------------------|
|----------------------------0---|(0)-----0-------1---0-----------|
|--------7---------------5---2---|(2)---------------------2---0---|
|5---------------9-----------2---|(2)-----------------------------|
|5---------------------------0---|(0)-----------------------------|
|5-----------5-------5-----------|----2-------2-------------------|
|1   +   2   +   3   +   4   +   |1   +   2   +   3   +   4   +   |

||--------------------------------|--------------------------------|
||--------------------5-----------|--------------------------------|
||--------------------4-----------|--------------------------------|
||14----\2------(2)--2---0---12--|(12)---\0------(0)------0---0-0-|
||14-----\2------(2)------0---12--|(12)---\0------(0)------0---0-0-|
||14-----\2------(2)----------12--|(12)---\0------(0)------0---0-0-|
||1   +   2   +   3   +   4   +   |1   +   2   +   3   +   4   +   |

|--------------------------------|--------------------------------||
|----------------------------0---|(0)-----0-------1-p-0-----------||
|--------7---------------5---2---|(2)---------------------2---0---||
|5---------------9-----------2---|(2)-----------------------------||
|5---------------------------0---|(0)-----------------------------||
|5-------------------------------|----2-------2-------------------||
|1   +   2   +   3   +   4   +   |1   +   2   +   3   +   4   +   ||


Song order:
Intro	1x
Verse	3x
Intro	1x
Chorus	2x
Verse	3x
Intro	1x
Interlude	1x
Bridge	1x



Third TAB so far, but first one of rock.  If U also like classical music, you can also
take a look at my other two TAB's so far on this page:
Carcassi Mateo "Study in the key of C major" Johan Sebastian Bach "Menuett in G"

I didn't include the chords for the acoustic part because I think there are too much TABS
offering them.  But, if U wanna have the correct version of the chords, write me.


John Kepa Balparda
Angel
johnkepa@hotmail.com
Comments