Staind - Outside Chords & Tabs

 

Outside Chords & Tabs

Staind Chords & Tabs

Version: 11 Type: Tab 0 ratings
1 star 2 stars 3 stars 4 stars 5 stars
comments

Outside Tab

   
I saw the other tabs and they are so criminally wrong. This is a superb
song and deserves to be tabbed the correct way. This tab is pretty much 
perfect and fairly easy to play, so enjoy!

Drop D tuning (also detuned a step if u wanna play like Staind, but 
simple drop d is fine)
Detuned:
D#
A#
F#
C#
G#
C#

1)Intro and Verse:

   	Guitar 1 (Acoustic)

e|---------0-0-------------------0---0--------------0-0--0-
B|---------0-0------------0----0-0---0--------------0-0--0-
G|-9---9---9-9---7--------7----7-7---7------7---7---7-7--9-
D|-9---9---9-9---7--------7----7-7---7------5---5---5-5--7-
A|-7---7---7-7---5--------5----5-5---5------5---5---5-5--7-
D|------------------------------------------5---5---5-5--7-

Play once, then play again with this:

   	Guitar 2 (Acoustic)

e|----------------------------------------------------------------------
B|-12-12--12-13--10------10---12-10----10----8--10--8---12----10--------
G|---9---9-----9-------9-----9-------9------7---7-----7--------------12-
D|--------------------------------------------------------------9-10----
A|----------------------------------------------------------------------
D|----------------------------------------------------------------------
 

2)Chorus:
   
	Guitar 1 (switch to heavy distortion)
[ Tab from: http://www.guitartabs.cc/tabs/s/staind/outside_tab_ver_11.html ]
e|-0---0---0-0----3---3---3-3--3-----2---2---2-2---0---0---0-0-0--0-
B|-0---0---0-0----3---3---3-3--3-----3---3---3-3---0---0---0-0-0--0-
G|-1---1---1-1----0---0---0-0--0-----2---2---2-2---9---9---9-9-9--9-
D|-2---2---2-2----5---5---5-5--5-----0---0---0-0---7---7---7-7-7--7-
A|-2---2---2-2----5---5---5-5--5-----0---0---0-0---7---7---7-7-7--7-
D|-2---2---2-2----5---5---5-5--5-----0---0---0-0---7---7---7-7-7--7-

	Guitar 2 (distortion)

e|-----------------------------------------------------------------
B|-----------------------------------------------------------------
G|--------------------7-----4-----5--------------------4---5-4-2-0-
D|-----------------------------------------------------------------
A|-----------------------------------------------------------------
D|-----------------------------------------------------------------


3)Solo 

(>= slide down, eg from fret 14 to fret 2)

	Guitar 1 (heavy distortion)
  
e|-----------------------------0--0----0-0-0--0----0---0-000----
B|-----------------------------0--0----0-0-0--0----0---0-000----
G|-----------------------------7--7----7-7-7--9----9---9-999----
D|----14>2--2-2---12>0--0-0-0--5--5----5-5-5--7----7---7-777----
A|----14>2--2-2---12>0--0-0-0--5--5----5-5-5--7----7---7-777----
D|----14>2--2-2---12>0--0-0-0--5--5----5-5-5--7----7---7-777----
  
	Guitar 2 (distortion)

e|--------------------------------------------------------------
B|--------------------------------------------------------------
G|-------------------77-11-9-7-9--77---11-9-7-9----4---5-4-2-0--
D|----6--6--6-4-6-7---------------------------------------------
A|-------------------55--9-7-5-7--55----9-7-5-7-----------------
D|--------------------------------------------------------------

Note- At the end play the chorus chords in acoustic.

			###ROB JOYCE###
Comments