Staind - Outside Studio Chords & Tabs

 

Outside Studio Chords & Tabs

Staind Chords & Tabs

Version: 2 Type: Tab 0 ratings
1 star 2 stars 3 stars 4 stars 5 stars
comments

Outside Studio Tab

Hi this is my First tab. I figured this out on an Acoustic so if there are any mistakes tell me.

This is what i think the studio version of Outside sounds like.

This is played over the strumming in the verses

Keep scrolling to the right >.  it's kinda long

[ Tab from: http://www.guitartabs.cc/tabs/s/staind/outside_studio_tab_ver_2.html ]
|---7----7----8--7------5----5---7---5----5-------3--5--3--------7---3---------3-------------
|------8----8-------8-------6----6--------6-----------------------------------0>1-----------------
|--------------------------------------------------------------------------------------------------------
|--------------------------------------------------------------------------------------------------------
|--------------------------------------------------------------------------------------------------------
|--------------------------------------------------------------------------------------------------------
|--------------------------------------------------------------------------------------------------------

2nd time on 1st Verse

At the end play
   
|--5---3------------
|--------------------
|--------------------
|--------------------
|--------------------
|--------------------

  Verse

|----------------------------------------------------------------
|----------------------------------------------------------------
|----------------------------------------------------------------
|----9---------7---------------(3)----------3---------5------
|----9---------7---------------(3)----------3---------5------
|----7---------5---------------(0)----------5---------7------


I'm working on the chorus because it's different on the studio version. 
Any comments or corrections, send them to BigA387@aol.com.
Comments