Staind - Outside Studio Chords & Tabs

 

Outside Studio Chords & Tabs

Staind Chords & Tabs

Version: 1 Type: Tab 0 ratings
1 star 2 stars 3 stars 4 stars 5 stars
comments

Outside Studio Tab

   
#---------------------------------YOU BEST NOTE-------------------------------#
#This file is the author's own work and represents their interpretation of the#
#song. You may only use this file for private study, scholarship, or research.#
#-----------------------------------------------------------------------------#
#---------------------------------YOU BEST NOTE-------------------------------#
#This file is the author's own work and represents their interpretation of the#
#song. You may only use this file for private study, scholarship, or research.#
#-----------------------------------------------------------------------------#

This is Outside Complete Studio Version

Words and Music by Aaron Lewis

Transcribed by Brian S


Guitar 1 - Acoustic 		 Eb Ab Db Gb Bb Eb
Guitar 2 - Baritone Guitar	 Db Ab Db Gb Bb Eb
Guitar 3 - Baritone Guitar	 Db Ab Db Gb Bb Eb

Intro :
guitar 1 : repeated throughout song :
  E5		   D 6/9 (no 3rd)	     G6		    Am9 (no 3rd) 	
e-0--0-------------0---(0)-----0--0----------------------------0-----------|
b-0--0---0----0----0---(0)--0--0--0--0---0------0--0--------0--0-0-0-------|
g-9--9---9--9-9----7---(7)--7-----7--7-x-7------x--0--------x--0-0---0-----|
d-9--9---9--9-9----7---(7)--7--------7---7---5--5-----5-----7--------7---0-|
a-7--7---7--7-7-0--5---(5)--5--------5-------5--5-----5-----7--------7-0-0-|
e--------------------------------------------3--3-----3--0--5--------5-0---|

guitar 2 (baritone) enters 2nd time :
e-------------------------------------------------------------------------|
b-12----12-----13-12---------------------12--------------------10vv-------|
g------------------------14vvv----14--------14----14-----12---------12----|
d----14----14---------14-------14----14--------14-----12----12---------12-|
a-------------------------------------------------------------------------|
D-------------------------------------------------------------------------|

	  		Verse :
e----------------------|--------------------------------------------------|
b--12vv----------------|-12----12-----13-12----------------------12-------|
g-------12-------12vv--|------------------------14vvv-----14--------14----|
d----------9//10-------|----14----14---------14--------14----14--------14-|
a----------------------|--------------------------------------------------|
D----------------------|--------------------------------------------------|
                 And you                     you bring....

e-------------------------------------------------------|
b---------------10vv---------12vv-----------------10----|
g-14-----12----------12-----------12-------12--------12-|
d-----12----12----------12-----------9//10----10--------|
a-------------------------------------------------------|
D-------------------------------------------------------|
[ Tab from: http://www.guitartabs.cc/tabs/s/staind/outside_studio_tab.html ]
Chorus :
  But I'm on the Out-side...
/  guitar 1 (acoustic)
  e----------------0--0--0--0-0-0-0-0-0-----3------------------|
  b----------------0--0--0--0-0-0-0-0-0-----3--.-.-.-.-.-.-.-.-|
  g----------------1--1--1--1-1-1-1-1-1-----0------------------|
  d----------------2--2--2--2-2-2-2-2-2-----0------------------|
  a----------------2--2--2--2-2-2-2-2-2-----x------------------|
  e----------------0--0--0--0-0-0-0-0-0-----3------------------|
-  guitar 2 (baritone electric) w/ dist.
  e------------------------------------------------------------|
  b------------------------------------------------------------|
  g---------------------------------------------7-----------5\\|
  d----------------2-----2~~~~~~(2)-2-------5---------9--------|
  a----------------2-----2~~~~~~(2)-2--x--5-5------------------|
  D----------------2-----2~~~~~~(2)-2--x--5-5------5-----5-----|
\ 

/  guitar 1 (acoustic)
  e--0--.-.-.-.-.-.-.-.-.---0---------------------------------|
  b--3----------------------0-.-.-.-.-.-.-.-.-.-.-.-.-.-------|
  g--2----------------------2---------------------------------|
  d--0----------------------2---------------------------------|
  a-------------------------0---------------------------------|
  e-----------------------------------------------------------|
-  guitar 2 (baritone electric)
  e-----------------------------------------------------------|
  b-------------------------------0--------1p0----------------|
  g-------------------------2-------------------2p0-----------|
  d--0-----0------(0)-0-----2---------------------------------|
  a--0-----0------(0)-0-----0---------------------------------|
  D--0-----0------(0)-0-2-2----2------2-----------------------|
\

/  guitar 1 (acoustic)
  e--0--------------0----------------------------0-------------------0-|
  b--0--.-.-.-.-.-.-0--.-.-.-.-.-.-.-.-.-.-.-.-.-0-.-.-.-.-.-.-.-.-.-0-|
  g--9--------------7----------------------------x-------------------7-|
  d--9--------------7----------------------------5-------------------7-|
  a--7--------------5----------------------------5-------------------5-|
  e----------------------------------------------3---------------------|
-  guitar 2 (baritone electric)
  e--------------------------------------------------------------------|
  b--------------------------------------------------------------------|
  g--------------------------------------------------7------------5----|
  d--2---2---2-2-2--0----0----0---(0)----0-0-0---5---------9---------7-|
  a--2---2---2-2-2--0----0----0---(0)----0-0-0---5-------------------7-|
  D--2---2---2-2-2--0----0----0---(0)----0-0-0---5------5-----5------7-|
\

Interlude : (guitar 1 plays intro fig.)
/  guitar 2 (baritone electric) w/ dist.
  e-------------------------------------------------------------------|
  b-------------------------------------------------------------------|
  g---13--13-13--13--13--13--11-13--14------7---7--7---11--9--7--7--9-|
  d-------------------------------------------------------------------|
  a---11--11-11--11--11--11--9--11--12vvvvv\5---5--5---9---7--5--5--7-|
  D-------------------------------------------------------------------|
-  guitar 3 (baritone electric)
  e-------------------------------------------------------------------|
  b--------------------------5----------------------------------------|
  g--------------------------4----------------------------------------|
  d---14-----(14)\2----(2)---2---0--12------\---0-----(0)-----0--0--0-|
  a---14-----(14)\2----(2)-------0--12------\---0-----(0)-----0--0--0-|
  D---14-----(14)\2----(2)----------12------\---0-----(0)-----0--0--0-|
\

/  guitar 2 (baritone electric)
  e-------------------------------------------------|
  b-------------------------------------------------|
  g---9---7----/11---9--7---9--9--9-9-9-9-9-9-9-9---|
  d-------------------------------------------------|
  a---7---5----/9----7--5---7--7--7-7-7-7-7-7-7-7---|
  D-------------------------------------------------|
-  guitar 3 (baritone electric)
  e-------------------------------------------------|
  b--------------------------0-------0-----1-0------|
  g--------7-------------5---2-----------------2-0--|
  d---5-----------9----------2----------------------|
  a---5----------------------0----------------------|
  D---5--------5-----5------------2-----2-----------|
\

The Bridge is basically verses repeated
Comments