Staind - Outside Chords & Tabs

 

Outside Chords & Tabs

Staind Chords & Tabs

Version: 6 Type: Bass Tab 0 ratings
1 star 2 stars 3 stars 4 stars 5 stars
comments

Outside Bass Tab

Staind - Outside
Standard 5 string Tuning BEADG


G-------------------------------------------|
D-------------------------------------------|
A--6--6-6-6---4--4-4-4----------------------| (x4)
E-----------------------2--2-2-2---4--4-4-4-|
B-------------------------------------------|

Chorus
G-------------------------------------------|
D-------------------------------------------|
A-----------------------4--4-4-4------------| (x2)
E-------------2--2-2-2-------------4--4-4-4-|
B--4--4-4-4---------------------------------|
[ Tab from: http://www.guitartabs.cc/tabs/s/staind/outside_btab_ver_6.html ]
After Chorus
G-------------------------------------------|
D-------------------------------------------|
A-------------4--4-4-4----------------------| (x1)
E-----------------------2--2-2-2---4--4-4-4-|
B--4--4-4-4---------------------------------|

Verse

Chorus

After Chorus

Break
G-------------------------------------------|
D-------------------------------------------|
A-------------4--4-4-4----------------------| (x3)
E-----------------------2--2-2-2---4--4-4-4-|
B--4--4-4-4---------------------------------|

G-------------------------------------------|
D-------------------------------------------|
A--6----------4-----------------------------| (x1)
E-----------------------2----------4--------|
B-------------------------------------------|
Comments