Staind - Outside Acoustic Chords & Tabs

 

Outside Acoustic Chords & Tabs

Staind Chords & Tabs

Version: 2 Type: Tab 0 ratings
1 star 2 stars 3 stars 4 stars 5 stars
comments

Outside Acoustic Tab

this is my first tab ever, so tell me if it is good. my e-mail is halfipe4me@aol.com     this tab sounds 100% correct to me.


vrese:           strum
e----6-------4-------2-------4
b----6-------4-------2-------4
g----8-------6-------2-------4
d----8-------6-------4-------6
a----6-------4-------4-------6
E----6-------4-------2-------4


[ Tab from: http://www.guitartabs.cc/tabs/s/staind/outside_acoustic_tab_ver_2.html ]
chorus:          strum
e----0-------3-------2-------0
b----0-------0-------3-------1
g----2-------0-------2-------2
d----2-------0-------0-------2
a----1-------2-------0-------0
E----0-------3-------0-------0



whell, thats it the song goes in this order

verse
chorus
verse
chorus
verse
chorus 

      listen to the song for the struming !!!

Comments