Staind - Open Your Eyes Chords & Tabs

 

Open Your Eyes Chords & Tabs

Staind Chords & Tabs

Version: 6 Type: Tab 0 ratings
1 star 2 stars 3 stars 4 stars 5 stars
comments

Open Your Eyes Tab

Stephen Jerzak
Open your eyes

standard tuning

intro
e----------------------------------------------------------------------|
B----------------------------------------------------------------------|
G----------------------------------------------------------------------|
D---4-4-44------------4-4-44-------------------------------------------|(x2)
A---2-2-22-xxxx5xxx4--2-2-22--xxxx5xxx4--------------------------------|
E----------xxxx3xxx2----------xxxx3xxx2--------------------------------|

verse 1
e----------------------------------------------------------------------|
B----------------------------------------------------------------------|
G----------------------------------------------------------------------|
D---4--4--------4--4---------------------------------------------------|
A---2--2--5--4--2--2-4-5-4-2-4-5-4-2-----------------------------------|
E---------3--2-------2-3-2-0-2-3-2-0-----------------------------------|

chorus
e----------------------------------------------------------------------|
B----------------------------------------------------------------------|
G----------------------------------------------------------------------|
D----------------------------------------------------------------------|(x3)
A---5--5-5-5--5555--7--7-7-7--7777---9--9-9-9--9999---222222-444444----|
E---3--3-3-3--3333--5--5-5-5--5555---7--7-7-7--7777---000000-222222----|

e----------------------------------------------------------------------|
B----------------------------------------------------------------------|
G----------------------------------------------------------------------|
D---4-4-44------------4-4-44-------------------------------------------|(x2)
A---2-2-22-xxxx5xxx4--2-2-22--xxxx5xxx4--------------------------------|
E----------xxxx3xxx2----------xxxx3xxx2--------------------------------|


verse 2
e----------------------------------------------------------------------|
B----------------------------------------------------------------------|
G----------------------------------------------------------------------|
D---4--4--------4--4---------------------------------------------------|
A---2--2--5--4--2--2-4-5-4-2-4-5-4-2--2--2--2--2-----------------------|
E---------3--2-------2-3-2-0-2-3-2-0--0--0--0--0-----------------------|

e----------------------------------------------------------------------|
B----------------------------------------------------------------------|
G----------------------------------------------------------------------|
D---4-4-44------------4-4-44-------------------------------------------|(x2)
A---2-2-22-xxxx5xxx4--2-2-22--xxxx5xxx4--------------------------------|
E----------xxxx3xxx2----------xxxx3xxx2--------------------------------|
[ Tab from: http://www.guitartabs.cc/tabs/s/staind/open_your_eyes_tab_ver_6.html ]
verse 3
e----------------------------------------------------------------------|
B----------------------------------------------------------------------|
G----------------------------------------------------------------------|
D---4--4--------4--4---------------------------------------------------|
A---2--2--5--4--2--2-4-5-4-2-4-5-4-2--2--2--2--2-----------------------|
E---------3--2-------2-3-2-0-2-3-2-0--0--0--0--0-----------------------|

chorus
e----------------------------------------------------------------------|
B----------------------------------------------------------------------|
G----------------------------------------------------------------------|
D----------------------------------------------------------------------|(x3)
A---5--5-5-5--5555--7--7-7-7--7777---9--9-9-9--9999---222222-444444----|
E---3--3-3-3--3333--5--5-5-5--5555---7--7-7-7--7777---000000-222222----|

bridge
e----------------------------------------------------------------------|
B----------------------------------------------------------------------|
G----------------------------------------------------------------------|
D---222222222222222222222222-------------------------------------------|
A---000000000000000000000000----2--2--2--2-----------------------------|
E-------------------------------0--0--0--0-----------------------------|

chorus
e----------------------------------------------------------------------|
B----------------------------------------------------------------------|
G----------------------------------------------------------------------|
D----------------------------------------------------------------------|(x3)
A---5--5-5-5--5555--7--7-7-7--7777---9--9-9-9--9999---222222-444444----|
E---3--3-3-3--3333--5--5-5-5--5555---7--7-7-7--7777---000000-222222----|

chorus
e----------------------------------------------------------------------|
B----------------------------------------------------------------------|
G----------------------------------------------------------------------|
D----------------------------------------------------------------------|(x2)
A---5--5-5-5--5555--7--7-7-7--7777---9--9-9-9--9999---222222-444444----|
E---3--3-3-3--3333--5--5-5-5--5555---7--7-7-7--7777---000000-222222----|

chorus
e----------------------------------------------------------------------|
B----------------------------------------------------------------------|
G----------------------------------------------------------------------|
D----------------------------------------------------------------------|(x4)
A---5--5-5-5--5555--7--7-7-7--7777---9--9-9-9--9999---222222-444444----|
E---3--3-3-3--3333--5--5-5-5--5555---7--7-7-7--7777---000000-222222----|

outro
e----------------------------------------------------------------------|
B----------------------------------------------------------------------|
G----------------------------------------------------------------------|
D----------------------------------------------------------------------|
A---2--2--2--2--2--2--2--2---------------------------------------------|
E---0--0--0--0--0--0--0--0---------------------------------------------|
Comments