Staind - No Ones Kind Chords & Tabs

 

No Ones Kind Chords & Tabs

Staind Chords & Tabs

Version: 1 Type: Tab 0 ratings
1 star 2 stars 3 stars 4 stars 5 stars
comments

No Ones Kind Tab

   
Band- Staind
Song- No Ones Kind

Tuning: (low to high) Db Ab Db Gb Bb Eb

Notes: Still haven't figured out the solo...when I do I will add it.

Legend:
p.m=palm mute
/=slide up
\=slide down
h=hammer on
p=pull off
*=harmonic


INTRO: Fade in on this octave

Eb|---|
Bb|---|
Gb|-5-|
Db|---|
Ab|-3-|
Db|---|

VERSE:

Eb|-------------------------------|
Bb|-------------------------------|
Gb|-------------------------------|
Db|----------*5-------------------|
Ab|-3-2-0-0------0-2-3-0-3-2-0-0--|
Db|-3-2-0-0------0-2-3-0-3-2-0-0--|
p.m . . . .      . . . . . . . .

CHORUS:

Eb|--------------------|
Bb|--------------------|
Gb|-----------------7--|
Db|-----------------6--| 3 times
Ab|3-3-0-0-3-2-0-0--5--|
Db|3-3-0-0-3-2-0-0-----|
p.m    . . . . . . 

Eb|-------------------------------|
Bb|-------------------------------|
Gb|-------------------------------|
Db|----------*5-------------------| 1 time
Ab|-3-2-0-0------0-2-3-0-3-2-0-0--|
Db|-3-2-0-0------0-2-3-0-3-2-0-0--|
p.m . . . .      . . . . . . . .

Eb|--------------------|
Bb|--------------------|
Gb|-----------------7--|
Db|-----------------6--| 3 times
Ab|3-3-0-0-3-2-0-0--5--|
Db|3-3-0-0-3-2-0-0-----|
p.m    . . . . . . 
[ Tab from: http://www.guitartabs.cc/tabs/s/staind/no_ones_kind_tab.html ]
Eb|----------------------------------|
Bb|----------------------------------|
Gb|----------------------------------|
Db|---------3h4---------5\4----------| 1 time
Ab|-0-0-0-0-----0-0-0-0-3\2-0-7-0-6--|
Db|-0-0-0-0-----0-0-0-0-----0-7-0-6--|
p.m . . . .     . . . .     .   .

BRIDGE:

Eb|-----------------------------|
Bb|-----------------------------|
Gb|--------------------------7--|
Db|--------------------------6--|
Ab|-0-2-0-2-0-2-0-2-0-3-2-0--5--|
Db|-0-2-0-2-0-2-0-2-0-3-2-0-----|
p.m .   .   .   .   .     

Then hold that last chord and just get any feedback possible


RYTHYM PART FOR SOLO:

Eb|-------------------------------|
Bb|-------------------------------|
Gb|-------------------------------|
Db|----------*5-------------------|
Ab|-3-2-0-0------0-2-3-0-3-2-0-0--|
Db|-3-2-0-0------0-2-3-0-3-2-0-0--|
p.m . . . .      . . . . . . . .

Then go through the chorus

Then the bridge

Then this:

Eb|--------------------------|
Bb|--------------------------|
Gb|-----------------------7--|
Db|-----------------------6--|
Ab|-0-2-3-2-0-2-3-2-0-2-3-5--|
Db|-0-2-3-2-0-2-3-2-0-2-3----|
p.m . . . . . . . . . . . 

Then end the song by playing this many times:

Eb|----------------------------------------|
Bb|----------------------------------------|
Gb|-------------------------------------7--|
Db|-------------------------------------6--|
Ab|-0-2-0-2-3-2-0-2-0-2-0-2-3-2-0-2-0-2-5--|
Db|-0-2-0-2-3-2-0-2-0-2-0-2-3-2-0-2-0-2----|
p.m . . . . . . . . . . . . . . . . . . 

Hold that last chord and get some major feedback...
Comments