Staind - Nameless Chords & Tabs

 

Nameless Chords & Tabs

Staind Chords & Tabs

Version: 1 Type: Tab 0 ratings
1 star 2 stars 3 stars 4 stars 5 stars
comments

Nameless Tab

   
Band- Staind
Song- Nameless

Tuning: (low to high) Db Ab Db Gb Bb Eb

Lengend: 

h=hammer on
p=pull off
.=palm mute
*=harmonic
/=slide up
\=slie down

Notes: 2 guitars are used in this song. So I just tabbed this out if you were to be playing by 
yourself.


INTRO PART 1:
               8x
Eb|-------------------------------------|-------------|
Bb|-------------------------------------|-------------|
Gb|-------------------------------------|-------------|
Db|-5h6-X-X-X-X-6p5-X-X-X-X-5-----------|-0-5-6-5-----|
Ab|-5h6-X-X-X-X-6p5-X-X-X-X-5-0-0-0-----|-0-5-6-5-----|
Db|-5h6-X-X-X-X-6p5-X-X-X-X-5-0-0-0-----|-0-5-6-5-----|
p.m                           . . .       . . . .

INTRO PART 2:

Eb|---------------------------------------------------|
Bb|---------------------------------------------------|
Gb|--------------------------------------------8------|
Db|----------6-----------6----------6----------7------|
Ab|-0----3-0-5--0----3-0-5-0----3-0-5-0----3-0-6------|
Db|-0-*5-3-0----0-*5-3-0---0-*5-3-0---0-*5-3-0--------|
p.m        .           .          .          .

Eb|--------------------------------------------------------------------|
Bb|--------------------------------------------------------------------|
Gb|--------------------------------------------------------------------|
Db|----------6-----------6----------6----------------------------------|
Ab|-0----3-0-5--0----3-0-5-0----3-0-5-1-X-X-3p1-X-X-3p1-X-X-3p1-X-X-3--|
Db|-0-*5-3-0----0-*5-3-0---0-*5-3-0---1-X-X-3p1-X-X-3p1-X-X-3p1-X-X-3--|
p.m        .           .          .          

VERSE PART 1:

Eb|------------8-----8----------------8----8----|
Bb|---X-9---10--8-----8\-----X-9---10--8----8---|
Gb|-6-----7-------10-----X-6-----7-------10-----|
Db|---------------------------------------------|
Ab|---------------------------------------------|
Db|---------------------------------------------|

VERSE PART 2:
[ Tab from: http://www.guitartabs.cc/tabs/s/staind/nameless_tab.html ]
Eb|---------------------------------------------------|
Bb|---------------------------------------------------|
Gb|--------------------------------------------8------|
Db|----------6-----------6----------6----------7------|
Ab|-0----3-0-5--0----3-0-5-0----3-0-5-0----3-0-6------|
Db|-0-*5-3-0----0-*5-3-0---0-*5-3-0---0-*5-3-0--------|
p.m        .           .          .          .

Eb|--------------------------------------------------------------------|
Bb|--------------------------------------------------------------------|
Gb|--------------------------------------------------------------------|
Db|----------6-----------6----------6----------------------------------|
Ab|-0----3-0-5--0----3-0-5-0----3-0-5-1-X-X-3p1-X-X-3p1-X-X-3p1-X-X-3--|
Db|-0-*5-3-0----0-*5-3-0---0-*5-3-0---1-X-X-3p1-X-X-3p1-X-X-3p1-X-X-3--|
p.m        .           .          .          

CHORUS PART 1:

Eb|-----------------|
Bb|-----------------|
Gb|-----------------|
Db|-----------------|
Ab|-0-2-2-3-0-0-2---|
Db|-0-2-2-3-0-0-2---|
p.m   . .   . .    

CHORUS PART 2:

Eb|---------------------------------------------------|
Bb|---------------------------------------------------|
Gb|--------------------------------------------8------|
Db|----------6-----------6----------6----------7------|
Ab|-0----3-0-5--0----3-0-5-0----3-0-5-0----3-0-6------|
Db|-0-*5-3-0----0-*5-3-0---0-*5-3-0---0-*5-3-0--------|
p.m        .           .          .          .

Then go through the verse...
Then the first part of the chorus...

BRIDGE: I don't know what effect is being used on the octaves here but there is one...you decide what to do.

Eb|----------------------------------------------------|
Bb|----------------------------------------------------|
Gb|-9-9-9-9--10-10-10-10-------------------------------|
Db|-X-X-X-X---x--x--x--x-------------------------------|
Ab|-7-7-7-7---8--8--8--8--1-X-X-3p1-X-X-1h3-X-X-3p1----|
Db|-----------------------1-X-X-3p1-X-X-1h3-X-X-3p1----|

Then play the first part of the chorus...
The last part is just the intro being played over again
Comments