Staind - Mudshovel Chords & Tabs

 

Mudshovel Chords & Tabs

Staind Chords & Tabs

Version: 1 Type: Bass Tab 1 rating
1 star 2 stars 3 stars 4 stars 5 stars
comments

Mudshovel Bass Tab

   
                             Staind
                            Mudshovel
                            Bass Tab 
                 Transcribed By: Lynn and Jordy Smith
                     Tabbed By: Jordy Smith
                         C#,A,D,G Tuning

[ Tab from: http://www.guitartabs.cc/tabs/s/staind/mudshovel_btab.html ]
                              Verse
G-----------------------------------------------------------------------------------
D-----------------------------------------------------------------------------------
A-----------------------------------------------------------------------------------
C#-77-77-77-7777777-1010-1010-1010-10101010101010-00-00-00-0000000-00-00-00-0000000-


              Chorus
G---------------4---------------
D-------------------------------
A------------2---------------2b-
C#-7-7-7-777-------0-0-0-000----


        Post-Chorus
G--------------------------
D--------------------------
A--------------------------
C#-5-0-6-0-3-0-5-0-6-0-343-


That's as close as I can come to perfecting this song but if you have
any questions, comments, or corrections, e-mail me at:  
                   bass_kid_2000@yahoo.com
Comments