Staind - Just Go Chords & Tabs

 

Just Go Chords & Tabs

Staind Chords & Tabs

Version: 6 Type: Tab 0 ratings
1 star 2 stars 3 stars 4 stars 5 stars
comments

Just Go Tab

Band: Staind
Song: Just Go
Album: Dysfunction
Tabbed by: w1crazymofo@bolt.com
Tuning: Drop Db
        
Intro
Eb|------------------------------------------------------------------|
Bb|------------------------------------------------------------------|
Gb|------------------------------------------------------------------|
Db|------------------------------------------------------------------|
Ab|--8----------------------------------8----------------------------|
Db|----10-0-10-12^--12-0-3h5-5-5p3-3-0----10-0-10-12^--12-0-3h5-5p3--|
[ Tab from: http://www.guitartabs.cc/tabs/s/staind/just_go_tab_ver_6.html ]
Chorus
Eb|--------------------------------------------------------------------|
Bb|--------------------------------------------------------------------|
Gb|--10----------------------------------10----------------------------|
Db|--10-10-0-10-12^--12-0-3/5-5-5\3-3-0--10-10-0-10-12^--12-0-3/5-5\3--|
Ab|--8--10-0-10-12^--12-0-3/5-5-5\3-3-0--8--10-0-10-12^--12-0-3/5-5\3--|
Db|-----10-0-10-12^--12-0-3/5-5-5\3-3-0-----10-0-10-12^--12-0-3/5-5\3--|
 
Verse
Eb|-------------------------------------|
Bb|-------------------------------------|
Gb|-------------------------------------|
Db|-------------------------------------|
Ab|--8--------8--------8--------8-------|
Db|----10-0-0---10-0-0---10-0-0---10-9--|

Bridge
Eb|-----------------------------------------------------------------5--|
Bb|-------5-----6-5-8-6-5-----7-5-8-5-6-5-----6-5---8-6-5-----6-5------|
Gb|---------5-------------5---------------5-------5-------5-------5----| Play Twice
Db|--1--------7-------------7---------------7---------------7----------|
Ab|--1-----------------------------------------------------------------|
Db|--1-----------------------------------------------------------------|

Eb|--------------------------------------5--|
Bb|--5-----6-5-8-6-5-----7-5-8-5-6-5--------|
Gb|----5-------------5---------------5------|
Db|------7-------------7---------------7----|
Ab|-----------------------------------------|
Db|-----------------------------------------|

Eb|---------------|
Bb|---------------|
Gb|---------------|
Db|--0-2-0-2-0-1--|
Ab|--0-2-0-2-0-1--|
Db|--0-2-0-2-0-1--|
  PM   ^   ^   ^

Outro
Eb|----------------------------|-----------|
Bb|----------------------------|-----------|
Gb|--10-------0---10------0-0--|--0-----0--|
Db|--10-------0---10------0-0--|--0-----0--|
Ab|--8--------0---8-------0-0--|--0-----0--|
Db|-----10^---0------10^--0-0--|--0-----0--| 
Comments