Staind - Just Go Chords & Tabs

 

Just Go Chords & Tabs

Staind Chords & Tabs

Version: 3 Type: Tab 0 ratings
1 star 2 stars 3 stars 4 stars 5 stars
comments

Just Go Tab

   
STAIND, JUST GO
CHRIS,tbertsch@pressenter.com
                 intro
|------------------------------------------------------
|------------------------------------------------------
|------------------------------------------------------
|--5p0---------2b-------------------------play this twice
|-------------------2-----------------------------------
|---------0-------------33-/-5-55-\-3-3-----------------


|-----------------------------------------------------
|-----------------------------------------------------
|-------------------------------------------play this 4 times with distortion
|--5p0-------2b---------------------------------------
|-----------------2-----------------------------------
|--------0------------3-3-/-5--55-\-3-3---------------

[ Tab from: http://www.guitartabs.cc/tabs/s/staind/just_go_tab_ver_3.html ]
                verse
|-----------------------------------------------------
|------------------------|----------------------------
|------------------------|----------------------------
|--5p0---------5p0-------|--5p0---------5p0-----------
|------------------------|----------------------------
|--------0-0---------0-0-|--------0-0---------0-0-----
            play that like 12-13 times

                             
intro with distortion X8....verse

    bridge
|----------------------|
|----------------------|
|----------------------|
|---3------------------|  let ring*
|---3------------------|
|---1------------------|
  F5  F5 F# F#   E5 E5 F5 F5 
|--------------|------------------------------|
|--------------|------------------------------|
|--------------|------------------------------|
|--3--3--4--4--|--2--2--3--3------------------|play like twice
|--3--3--4--4--|--2--2--3--3------------------|
|--1--1--2--2--|--0--0--1--1------------------|
        THEN I THINK IT PLAYS THE INTRO W/DIST.
|------------------|
|------------------|
|------------------|
|--5--5--2--2------|LET E5 RING 
|--5--5--2--2------|
|--3--3--0--0------|
  G5 G5 E5 E5
 

Comments