Staind - Just Go Chords & Tabs

 

Just Go Chords & Tabs

Staind Chords & Tabs

Version: 2 Type: Tab 0 ratings
1 star 2 stars 3 stars 4 stars 5 stars
comments

Just Go Tab

Name: Jason Russo Email Jrusso99@yahoo.com Tab: Staind Song: Just Go 

   *intro (gtr. - CLEAN) 

   E------------------------------------------I 
   B------------------------------------------I 
   G------------------------------------------I PLAY 2x 
   D--3----------------------------------------I 
   A-----3---0---3---5 5---------------------------I 
   D----------------------------0--3h5--5--5--3--3--0--------I 

   ~Band in~ 
   E------------------------------------------------------------------------I 
   B------------------------------------------------------------------------I 
   G--10---------------------------------------------10-------------------------- 
   -----I REPEAT 
   D--10--10--0--10-12-x-3-/-5--5--0-3-0---10--10--0--10--12-0--3--5--0-3---I 
   A---8--10--0--10-12-x-3-/-5--5--0-3-0----8--10--0--10--12-0--3--5--0-3---I 
   D------10--0--10-12-x-3-/-5--5--0-3-0-------10--0--10--12-0--3--5--0-3---I 


   *VERSE: 
   (cleaner tone) 

   E---------------------------------I 
   B---------------------------------I 
   G---------------------------------I REPEAT 
   D----------------|----------------I 
   A--8-------------|--8-------------I 
   D----10--0---0---|-----10--9------I 
[ Tab from: http://www.guitartabs.cc/tabs/s/staind/just_go_tab_ver_2.html ]
   *CHORUS: 
   E------------------------------------------------------------------------I 
   B------------------------------------------------------------------------I 
   G--10-----------------------------------10-------------------------------I 
   REPEAT 
   D--10--10--0--10-12-x-3-/-5--5--0-3-0---10--10--0--10--12-0--3--5--0-3---I 
   A---8--10--0--10-12-x-3-/-5--5--0-3-0----8--10--0--10--12-0--3--5--0-3---I 
   D------10--0--10-12-x-3-/-5--5--0-3-0-------10--0--10--12-0--3--5--0-3---I 



   BRIDGE 1: 

   i feel so.... 
   gtr 1 

   E----------------------------------------I 
   B----------------------------------------I 
   G----------------------------------------I REPEAT 
   D----------------------------------------I 
   A----------------------------------------I 
   D--7--5--3-----7--10--9------------------I 
   | 
   | gtr 2 
   E------------------5---------------------I 
   B--6-5-8-5-6-5-8-5-----------------------I 
   G----------------------------------------I REPEAT 
   D----------------------------------------I 
   A----------------------------------------I 
   D----------------------------------------I 







   BRIDGE 2: 
   i'm water.... 

   with slight palm mutes 

   E----------------------------------------I 
   B----------------------------------------I 
   G----------------------------------------I REPEAT (rest on 1) 
   D-0-2-0-2-0-2-0-1------------------------I 
   A-0-2-0-2-0-2-0-1------------------------I 
   D-0-2-0-2-0-2-0-1------------------------I 




   *OUTRO: 

   just, just... 
   E--------------------------I 
   B--------------------------I 
   G--------0----------0-0----I 
   D--------0----------0-0----I 
   A-8------0---8------0-0----I 
   D---10^--0-----10^--0-0----I 

   lies lies..etc. 
   E------------------------------I 
   B------------------------------I 
   G------------------------------I 
   D--0----0----------------------I 
   A--0----0----------------------I 
   D--0----0----------------------I 
Comments