Staind - Its Been Awhile Chords & Tabs

 

Its Been Awhile Chords & Tabs

Staind Chords & Tabs

Version: 7 Type: Tab 0 ratings
1 star 2 stars 3 stars 4 stars 5 stars
comments

Its Been Awhile Tab

   
##################################################################################
# This file is the author's own work and represents their interpretation of the  #
# song. You may only use this file for private study, scholarship, or research.  #
##################################################################################

Author/Artist: Staind
Title: It's Been Awhile
Album: Break The Cycle
Transcribed by: Eugene Prokopenko
Email: hotfoontik@hotmail.com



intro and verses:

[-------------0-----------------------------------]
[-------3--------3------0-------------1-----------]
[-----------------------------0------------0-----0]
[----------2--------2-------------2-----------2---]
[----0---------------------3----------------------]
[-------------------------------------------------]

[-------------------------------------------------]
[--------------------------------------3---1------]
[------0-------0----------------0-------------2---]
[--0-------0-------0--------0-------0-------------]
[--x-------------------2--------------------------]
[--3----------------------3-----------------------]

[ Tab from: http://www.guitartabs.cc/tabs/s/staind/its_been_awhile_tab_ver_7.html ]
Am  Cmaj7  G6  Dsus2
[--0----0-----0-----0--]
[--1----0-----3-----3--]
[--2----0-----0-----2--]
[--2----2-----0-----0--]
[--0----3-----2-----0--]
[-------------3--------]


That's the song.  Tune down 1/2 step if you sound completely off.



*******************************************************************************************************************

*******************************************************************************************************************


Staind – It’s Been A While

Verse:
play all verses this way:
AmCG    D
E--------0------------------------------------------------||
B---3------3-----------1-0-------------------------3^1----||
G-----2-------2----0-------0-------------------0-------0--||
D--------------------2-----------0---0-------0---0-------0||
A-0--------------3-----------------4---4-0-2--------------||
E-----------------------------3---------------------------||


Chorus:
e--------------------||
b--------------------||
g------5-5-------7-7-||
d-7-7--5-5--5-5--7-7-||
a-7-7--3-3--5-5--5-5-||
e-5-5-------3-3------||


Tabman_007
Comments