Staind - Its Been Awhile Chords & Tabs

 

Its Been Awhile Chords & Tabs

Staind Chords & Tabs

Version: 2 Type: Tab 1 rating
1 star 2 stars 3 stars 4 stars 5 stars
comments

Its Been Awhile Tab

#----------------------------------PLEASE NOTE--------------------------------#
#This file is the author's own work and represents their interpretation of the#
#song. You may only use this file for private study, scholarship, or research.#
#-----------------------------------------------------------------------------#
#-- File created with Instab - http://www.pconline.com/~smcarey/instab.html --#
#-----------------------------------------------------------------------------#

Author/Artist: Staind
Title: its been awhile
Album: break the cycle
Transcribed by: Adam Quigley
Email: NsideRecords@aol.com

tune all strings down 1/2 step
[ Tab from: http://www.guitartabs.cc/tabs/s/staind/its_been_awhile_tab_ver_2.html ]
-|--------0-------------------------------------------------------------------
-|------3---3-------------3-2-----------1-3-1-------------1-3h1-0-------------
-|----2-------2---------2-----2-------0-------0-----0---0---------------------
-|--0-----------0-----2---------2---------------------0-----------------------
-|------------------0---------------3-----------3-----------------------------
-|----------------------------------------------------------------------------
     play these chords behind intro:Am7,C,G,D                                 

-|--0-0----------------------|--0-0--0-0--0--3-3---2-2--2-2-------------------
-|--1-1----------------------|--1-1--3-3--3--3-3---3-3--3-3-------------------
-|--2-2--5-5--5-------7-7----|--2-2--0-0--0--0-0---2-2--2-2-------------------
-|--2-2--5-5--5--5-5--7-7----|--2-2--2-2--2--0-0---0-0--0-0-------------------
-|--0-0--3-3--3--5-5--5-5----|--0-0--3-3--3--2-2---0-0--0-0-------------------
-|-------3-3--3--3-3--5-5----|-------0-0--0--3-3---0-0--0-0-------------------
   Chorus Electric            Chorus Acoustic                                 

Comments