Staind - Its Been A While Chords & Tabs

 

Its Been A While Chords & Tabs

Staind Chords & Tabs

Version: 4 Type: Tab 0 ratings
1 star 2 stars 3 stars 4 stars 5 stars
comments

Its Been A While Tab

Song: It's Been A While
Band: Staind
From: Break The Cycle
By:   Adam Urbanczyk
Mail: pickboy87@cs.com
Tune: Down 1/2 Step

   Intro/Verses:
Eb||------------------------------------------------|
Bb||------------3----------------------1------------|
Gb||-----0---------0------------0---------0---------|
Db||--------2---------2------------0---------0------|
Ab||--0------------------0--3-------------------3---|
Db||------------------------------------------------|

Eb|------------------------------------------------||
Bb|--------------------------------1------3--1-----||
Gb|-------0-----0---------------0-----0---------0--||
Db|----------0-----0--------0----------------------||
Ab|------------------------------------------------||
Eb|---3-----------------3--------------------------||
[ Tab from: http://www.guitartabs.cc/tabs/s/staind/its_been_a_while_tab_ver_4.html ]
   Chorus: Gtr 1
Eb|-----------------------------------------------|
Bb|-----------------------------------------------|
Gb|--2--2-2---5-5--5-5--------------7-7-7-7-7-7---|
Db|--2--2-2---5-5--5-5---5-5--5-5---7-7-7-7-7-7---|
Ab|--0--0-0---3-3--3-3---5-5--5-5---5-5-5-5-5-5---|
Eb|-----------3-3--3-3---3-3--3-3---5-5-5-5-5-5---|

   Chorus: Gtr 2
Eb|-----------------------------------------------|
Bb|-----------------------------------------------|
Gb|--2--2-2---5-5--5-5--------------7\5-4/5-5\4---|
Db|--2--2-2---5-5--5-5---5-5--5-5---x-x-x-x-x-x---|
Ab|--0--0-0---3-3--3-3---5-5--5-5---5\3-2/3-3\2---|
Eb|-----------3-3--3-3---3-3--3-3-----------------|

   Break: Gtr 1
Eb|-------------------------------|
Bb|-------------------------------|
Gb|------------7-7-7-7------------|
Db|--5-5-5-5---7-7-7-7---7-7-7-7--|
Ab|--5-5-5-5---5-5-5-5---7-7-7-7--|
Eb|--3-3-3-3---5-5-5-5---5-5-5-5--|

   Break: Gtr 2
Eb|-------------------------------|
Bb|-------------------------------|
Gb|--12--------7---------5\4/5-5--|
Db|---x--------x---------x-x-x-x--|
Ab|--10--------5---------3\2/3-3--|
Eb|-------------------------------|



Comments