Staind - Its Been A While Chords & Tabs

 

Its Been A While Chords & Tabs

Staind Chords & Tabs

Version: 2 Type: Tab 0 ratings
1 star 2 stars 3 stars 4 stars 5 stars
comments

Its Been A While Tab

 I tried a few of the other postings for this song, they just didn't
 seem to work out right, so this is the first tab i've submitted to 
 an archive, hope it's close to the real thing.


half a step down

---------------------------|--------------------------------------------------
------------5--------------|---------------------------------------------------
------7---------7----------|--------------------------------------------------
--------------------7P-----|---9---9--------10p9------------------------------
---0-----0-----------------|---10-----10----------10 \ ------------------------
---------------------------|---8-----------------------------------------------

-----------------------------------------------------------------------------
-----------------------------------------------------------------------------
------------------------------------7p5--------------------------------------
---5--5---5p4--------------4--5p4---------5\3-------------------------------
---4----4-------5\-------5---------------------------------------------------
---3-------------------------------------------------------------------------


This part was transcribed by J Reese
[ Tab from: http://www.guitartabs.cc/tabs/s/staind/its_been_a_while_tab_ver_2.html ]
-|-------------------------|------------------------------|-------------------
-|-------------------------|------------------------------|-------------------
-|-2-2--5-5-------7-7--7-7-|-2-2--5-5--7-7--5-5\4-4/5-5\4-|-------------------
-|-2-2--5-5--5-5--7-7--7-7-|-2-2--5-5---------------------|-------------------
-|-0-0--3-3--5-5--5-5--5-5-|-0-0--3-3--5-5--3-3\2-2/3-3\2-|-------------------
-|------3-3--3-3--5-5--5-5-|------3-3---------------------|-------------------
  Guitar 1 Chorus           Guitar 2 Chorus                                   

-|-----------|------------------|---------------------------------------------
-|-----------|------------------|---------------------------------------------
-|------7-7--|-----------77--77-|---------------------------------------------
-|-5-5--7-7--|-7-7--5-5--77--77-|---------------------------------------------
-|-5-5--5-5--|-7-7--5-5--55--55-|---------------------------------------------
-|-3-3--5-5--|-5-5--3-3--55--55-|---------------------------------------------
  Turnaround   Bridge(At end strike and sustain an A5)    




email me at gibson31_99@yahoo.com if you have any questions.
or J Reese at jreese@charter.net for questions about the chorus.

Thanks to J Reese who i found the chorus transcribed by.
Comments