Staind - How About You Chords & Tabs

 

How About You Chords & Tabs

Staind Chords & Tabs

Version: 1 Type: Bass Tab 0 ratings
1 star 2 stars 3 stars 4 stars 5 stars
comments

How About You Bass Tab

   
Artist: Staind
Song: How About You
Album: 14 Shades of Gray
Tabbed By: Mathias

Tuning - E,A,D,G

I didn't really get the strumming right but here's the song.

Intro and Verse
G[---------------------------------|
D[---------------------------------|
A[-4-4-4-4-6-6-6-6-3-3-3-3-4-4-4-4-|
E[---------------------------------|

Prechorus
G[---------------------|
D[---------------------|
A[-----------4-4-4-4-4-|
E[-4-4-4-4-4-----------|
[ Tab from: http://www.guitartabs.cc/tabs/s/staind/how_about_you_btab.html ]
Chorus (play 2x)
G[---------------------------------------------------------------------|
D[---------------------------------------------------------------------|
A[---------6-6-6-6-3-3-3-3-4-4-4-4-------------6-6-6-6-3-3-3-3-4-4-4-4-|
E[-4-4-4-4---------------------------4-4-4-4---------------------------|

Interlude (play 3x slowly)
G[--------------------------------------------------|
D[--------------------------------------------------|
A[-4---4---4----6---6---6----3---3---3----4---4---4-|
E[--------------------------------------------------|

If any comments contact me at INUTERO9089@aol.com
Comments