Staind - Home Chords & Tabs

 

Home Chords & Tabs

Staind Chords & Tabs

Version: 7 Type: Tab 0 ratings
1 star 2 stars 3 stars 4 stars 5 stars
comments

Home Tab

   
Artist: Staind
Title:  Home
Album:  MTV Unplugged (2001)
Tabbed by: Me (alreadygone@gmx.net)

Please read this !

Hey everybody ! I've been trying to play all of the unplugged concert
for a few months now and most of the tabs I found on the internet
were really wrong. As most of you know Mike Mushok uses a baritone guitar
which is like a seven string without the high e string. The problem
is that your normal six string just wont tune down to his tuning (ADADGB),
so I tabbed it out for normal drop-D guitar and I guaratee you my tabs
are 100% accurate, just play along the dvd and you'll see. The way I tabbed
these is by always trying to find a substitute for the note on the low A string to
recreate the tonality.I also watched the dvd and I'm sure this is how they play it. The
songs I haven't completely figured out yet are "pressure", "It's been Awhile"(which has
3 guitars in it!!!), "cant believe" and "fade". I'd really appreciate it if anyone knows
how these songs are played in the unplugged and helped me. 
Alright, here we go! Enjoy! Notation legend is at the bottom.



Tuning: Drop-D + 1/2 step down 

Acoustic Guitar 1 (Db, Ab, Db, Gb, Bb, Eb), Mike Mushok

[Acoustic Guitar 2 (Db, Ab, Db, Gb, Bb, Eb), Aaron Lewis] 
I havent figured this one out since its not so important, 
but I can give you the tabs if you're interested



Time: 4/4
      

Intro: Acoustic Guitar 1


  | 1   +   2  +  3  +  4  + |1  +  2  +  3  +  4  +  |
_______________________________________________________
                                               
Eb|--------------------------|------------------------|       
Bb|--------------------------|------------------------|       play this 
Gb|-(0)-------(12)---------0-|0-----------------------|       3 times
Db|-11h12p11---12-12-------0-|0-----------------------|
Ab|-10---------10-10h11----12|12------10h12p10---(10)-|        
Db|------------10-10----0--12|12------10---------(10)-|

then

  | 1  + 2   +  3  +  4  +  | 1  +  2  +  3  +  4  +  |
_______________________________________________________
                      
Eb|-------------------------|-------------------------|
Bb|-------------------------|-------------------------|
Gb|-------------------------|-------------------------|
Db|(9)----------------------|-------------------------|
Ab|-9h10p9------------------|-0-----------------------|
Db|-9-------10--9-----5--4--|-------------------------|





Verse: Acoustic Guitar 1


  | 1  +  2  +  3  +  4  +  | 1  +  2  +  3  +  4  +  |
_______________________________________________________
                                                        
Eb|-------------------------|-------------------------|
Bb|-------------------------|-------------8--------/--|		
Gb|-------------------------|---------------(0)-------|
Db|-0-----------------------|-------------------0-----|
Ab|-0-------------------8---|-------------------------|
Db|-0--------------------9--|-------------------------|
    ^strum that d chord lightly				
                                                         play this
							 4 times
							 
  | 1  +  2  +  3  +  4  +  | 1  +  2  +  3  +  4  +  |
_______________________________________________________
                                                      
Eb|-------------------------|-------------------------|
Bb|/10-------10-------------|-10-------10-------------|
Gb|-------12-------12-------|-------12-------12-------|
Db|----12-------------------|----12-------------------|
Ab|-------------------13----|-------------------12----|
Db|-------------------------|-------------------------|



play this 4 times, let everything ring




Chorus: Acoustic Guitar 1



[ Tab from: http://www.guitartabs.cc/tabs/s/staind/home_tab_ver_7.html ]
  | 1  +  2  +  3  +  4  +  | 1  +  2  +  3  +  4  +  |
_______________________________________________________
                                                                                                        
Eb|-------------------------|-------------------------|
Bb|-------------------------|-------------------------|
Gb|-------------7-----7--7--|----------------------4--|
Db|-5-----------5-----5--5--|----0-----0--0-----0--4--|
Ab|-5-----------5-----5--5--|----0-----0--0-----0-----|
Db|-5-----------5-----5--5--|----0-----0--0-----0-----|

							 Play this
          						  4 times
  | 1  +  2  +  3  +  4  +  | 1  +  2  +  3  +  4  +  |
_______________________________________________________

Eb|-------------------------|-------------------------|
Bb|-------------------------|-------------------------|
Gb|(4)------(4)-------------|-------------------------|
Db|-4--------4--4-----4--4--|-4--4--4-----4--4--4--0--|
Ab|-2--------2--2-----2--2--|-2--2--2-----2--2--2--0--|
Db|-2--------2--2-----2--2--|-2--2--2-----2--2--2--0--|


>>when youre playin it the fourth time, arpeggiate the last chord (Eb5sus2) 
upwards and slide up till you play the first D of the verse (listen to the dvd) :

  | 1  2  3  4 |  1  2  3  4 |
   __________________________ 
Eb|------------|-------------|
Bb|------------|-------------|
Gb|-4----------|----/--/-----|
Db|--4---------|---slide-up--|
Ab|---2--------|----/--/-----|
Db|----2-------|----/--/-----|

dont slide before the bridge !




Bridge: Acoustic Guitar 1


Part One:

  | 1 + 2 + 3 + 4 + | 1 + 2 + 3 + 4 + |                 |1 + 2 + 3 + 4 + | 
_______________________________________                 __________________
                
Eb|-----------------|-----------------|                 |----------------|
Bb|-----------------|-----------------|	repeat 8x	|----------------|
Gb|---------0-------|---------0-------|	then end	|----------0-----|
Db|-------4---4-----|-------4---4-----|	on this:	|-------4---4----|
Ab|-3---5-------5---|-3---5-------5---|			|-3---5------3---|
Db|---0-----------0-|---0-----------0-|			|---0---------0--|
								   ^arp. 




Breakdown: The 8 on the Bb string is optional; Play this 3 times


  | 1  +  2  +  3  +  4  + | 1  +  2  +  3  +  4  + |
_____________________________________________________
                                                                                
Eb|------------------------|------------------------|
Bb|(8)-8-----8--8-----8--8-|-8--8--8-----8--8--8--8-|
Gb|-7--7-----7--7-----7--7-|-7--7--7-----7--7--7--7-|
Db|-5--5-----5--5-----5--5-|-5--5--5-----5--5--5--5-|
Ab|-5--5-----5--5-----5--5-|-5--5--5-----5--5--5--5-|
Db|-5--5-----5--5-----5--5-|-5--5--5-----5--5--5--5-|
  

  | 1  +  2  +  3  +  4  + | 1  +  2  +  3  +  4  + |
_____________________________________________________
                                                                                
Eb|------------------------|------------------------|
Bb|(8)-8-----8--8-----8--8-|-8--8--8----------------|
Gb|-7--7-----7--7-----7--7-|-7--7--7----------------|
Db|-5--5-----5--5-----5--5-|-5--5--5-----0-----0----|
Ab|-5--5-----5--5-----5--5-|-5--5--5-----0-----0h3--|
Db|-5--5-----5--5-----5--5-|-5--5--5-----0-----0----|




Chorus: Play it tree times, then arpeggiate Eb5sus2
Outro:  Play the Chorus three times with a bit less volume, end the song with arp. Eb5sus2

SONG ORDER:

INTRO  3x
Verse  4x
Chorus 4x
Verse  4x
Chorus 4x
Bridge
Part1  16x
Part2  3x
Chorus 3x
Outro  3x



Thats it ! Feedback is very appreciated, my email adress is alreadygone@gmx.net !
I'd also appreciate any tabs for pressure,its been awhile,cant believe or fade unplugged !



Notation Legend:

(8): optional note
 h : hammer-on
 p : pull-off

Timing:

1 and 2 and 3 and 4 and

1  +  2  +  3  +  4  +
Comments